  0
SECTION
  2
HEADER
  9
$ACADVER
  1
AC1032
  9
$ACADMAINTVER
 90
      228
  9
$DWGCODEPAGE
  3
ANSI_932
  9
$LASTSAVEDBY
  1
FTM530544
  9
$REQUIREDVERSIONS
160
                 0
  9
$INSBASE
 10
0.0
 20
0.0
 30
0.0
  9
$EXTMIN
 10
406.9537203830289
 20
233.2066530597485
 30
0.0
  9
$EXTMAX
 10
616.9537203830288
 20
530.2066530597485
 30
0.0
  9
$LIMMIN
 10
0.0
 20
0.0
  9
$LIMMAX
 10
420.0
 20
297.0
  9
$ORTHOMODE
 70
     1
  9
$REGENMODE
 70
     1
  9
$FILLMODE
 70
     1
  9
$QTEXTMODE
 70
     0
  9
$MIRRTEXT
 70
     0
  9
$LTSCALE
 40
1.0
  9
$ATTMODE
 70
     1
  9
$TEXTSIZE
 40
2.5
  9
$TRACEWID
 40
1.0
  9
$TEXTSTYLE
  7
Standard
  9
$CLAYER
  8
0
  9
$CELTYPE
  6
ByLayer
  9
$CECOLOR
 62
   256
  9
$CELTSCALE
 40
1.0
  9
$DISPSILH
 70
     0
  9
$DIMSCALE
 40
1.0
  9
$DIMASZ
 40
2.5
  9
$DIMEXO
 40
0.625
  9
$DIMDLI
 40
3.75
  9
$DIMRND
 40
0.0
  9
$DIMDLE
 40
0.0
  9
$DIMEXE
 40
1.25
  9
$DIMTP
 40
0.0
  9
$DIMTM
 40
0.0
  9
$DIMTXT
 40
2.5
  9
$DIMCEN
 40
2.5
  9
$DIMTSZ
 40
0.0
  9
$DIMTOL
 70
     0
  9
$DIMLIM
 70
     0
  9
$DIMTIH
 70
     0
  9
$DIMTOH
 70
     0
  9
$DIMSE1
 70
     0
  9
$DIMSE2
 70
     0
  9
$DIMTAD
 70
     1
  9
$DIMZIN
 70
     8
  9
$DIMBLK
  1

  9
$DIMASO
 70
     1
  9
$DIMSHO
 70
     1
  9
$DIMPOST
  1

  9
$DIMAPOST
  1

  9
$DIMALT
 70
     0
  9
$DIMALTD
 70
     3
  9
$DIMALTF
 40
0.03937007874016
  9
$DIMLFAC
 40
1.0
  9
$DIMTOFL
 70
     1
  9
$DIMTVP
 40
0.0
  9
$DIMTIX
 70
     0
  9
$DIMSOXD
 70
     0
  9
$DIMSAH
 70
     0
  9
$DIMBLK1
  1

  9
$DIMBLK2
  1

  9
$DIMSTYLE
  2
ISO-25
  9
$DIMCLRD
 70
     0
  9
$DIMCLRE
 70
     0
  9
$DIMCLRT
 70
     0
  9
$DIMTFAC
 40
1.0
  9
$DIMGAP
 40
0.625
  9
$DIMJUST
 70
     0
  9
$DIMSD1
 70
     0
  9
$DIMSD2
 70
     0
  9
$DIMTOLJ
 70
     0
  9
$DIMTZIN
 70
     8
  9
$DIMALTZ
 70
     0
  9
$DIMALTTZ
 70
     0
  9
$DIMUPT
 70
     0
  9
$DIMDEC
 70
     2
  9
$DIMTDEC
 70
     2
  9
$DIMALTU
 70
     2
  9
$DIMALTTD
 70
     3
  9
$DIMTXSTY
  7
Standard
  9
$DIMAUNIT
 70
     0
  9
$DIMADEC
 70
     0
  9
$DIMALTRND
 40
0.0
  9
$DIMAZIN
 70
     0
  9
$DIMDSEP
 70
    44
  9
$DIMATFIT
 70
     3
  9
$DIMFRAC
 70
     0
  9
$DIMLDRBLK
  1

  9
$DIMLUNIT
 70
     2
  9
$DIMLWD
 70
    -2
  9
$DIMLWE
 70
    -2
  9
$DIMTMOVE
 70
     0
  9
$DIMFXL
 40
1.0
  9
$DIMFXLON
 70
     0
  9
$DIMJOGANG
 40
0.7853981633974483
  9
$DIMTFILL
 70
     0
  9
$DIMTFILLCLR
 70
     0
  9
$DIMARCSYM
 70
     0
  9
$DIMLTYPE
  6

  9
$DIMLTEX1
  6

  9
$DIMLTEX2
  6

  9
$DIMTXTDIRECTION
 70
     0
  9
$LUNITS
 70
     2
  9
$LUPREC
 70
     4
  9
$SKETCHINC
 40
1.0
  9
$FILLETRAD
 40
0.0
  9
$AUNITS
 70
     0
  9
$AUPREC
 70
     0
  9
$MENU
  1
.
  9
$ELEVATION
 40
0.0
  9
$PELEVATION
 40
0.0
  9
$THICKNESS
 40
0.0
  9
$LIMCHECK
 70
     0
  9
$CHAMFERA
 40
0.0
  9
$CHAMFERB
 40
0.0
  9
$CHAMFERC
 40
0.0
  9
$CHAMFERD
 40
0.0
  9
$SKPOLY
 70
     0
  9
$TDCREATE
 40
2459285.697789352
  9
$TDUCREATE
 40
2459285.322789352
  9
$TDUPDATE
 40
2460186.388078704
  9
$TDUUPDATE
 40
2460186.013078704
  9
$TDINDWG
 40
0.0052314815
  9
$TDUSRTIMER
 40
0.0052314815
  9
$USRTIMER
 70
     1
  9
$ANGBASE
 50
0.0
  9
$ANGDIR
 70
     0
  9
$PDMODE
 70
     0
  9
$PDSIZE
 40
0.0
  9
$PLINEWID
 40
0.0
  9
$SPLFRAME
 70
     0
  9
$SPLINETYPE
 70
     6
  9
$SPLINESEGS
 70
     8
  9
$HANDSEED
  5
8C8
  9
$SURFTAB1
 70
     6
  9
$SURFTAB2
 70
     6
  9
$SURFTYPE
 70
     6
  9
$SURFU
 70
     6
  9
$SURFV
 70
     6
  9
$UCSBASE
  2

  9
$UCSNAME
  2

  9
$UCSORG
 10
0.0
 20
0.0
 30
0.0
  9
$UCSXDIR
 10
1.0
 20
0.0
 30
0.0
  9
$UCSYDIR
 10
0.0
 20
1.0
 30
0.0
  9
$UCSORTHOREF
  2

  9
$UCSORTHOVIEW
 70
     0
  9
$UCSORGTOP
 10
0.0
 20
0.0
 30
0.0
  9
$UCSORGBOTTOM
 10
0.0
 20
0.0
 30
0.0
  9
$UCSORGLEFT
 10
0.0
 20
0.0
 30
0.0
  9
$UCSORGRIGHT
 10
0.0
 20
0.0
 30
0.0
  9
$UCSORGFRONT
 10
0.0
 20
0.0
 30
0.0
  9
$UCSORGBACK
 10
0.0
 20
0.0
 30
0.0
  9
$PUCSBASE
  2

  9
$PUCSNAME
  2

  9
$PUCSORG
 10
0.0
 20
0.0
 30
0.0
  9
$PUCSXDIR
 10
1.0
 20
0.0
 30
0.0
  9
$PUCSYDIR
 10
0.0
 20
1.0
 30
0.0
  9
$PUCSORTHOREF
  2

  9
$PUCSORTHOVIEW
 70
     0
  9
$PUCSORGTOP
 10
0.0
 20
0.0
 30
0.0
  9
$PUCSORGBOTTOM
 10
0.0
 20
0.0
 30
0.0
  9
$PUCSORGLEFT
 10
0.0
 20
0.0
 30
0.0
  9
$PUCSORGRIGHT
 10
0.0
 20
0.0
 30
0.0
  9
$PUCSORGFRONT
 10
0.0
 20
0.0
 30
0.0
  9
$PUCSORGBACK
 10
0.0
 20
0.0
 30
0.0
  9
$USERI1
 70
     0
  9
$USERI2
 70
     0
  9
$USERI3
 70
     0
  9
$USERI4
 70
     0
  9
$USERI5
 70
     0
  9
$USERR1
 40
0.0
  9
$USERR2
 40
0.0
  9
$USERR3
 40
0.0
  9
$USERR4
 40
0.0
  9
$USERR5
 40
0.0
  9
$WORLDVIEW
 70
     1
  9
$SHADEDGE
 70
     3
  9
$SHADEDIF
 70
    70
  9
$TILEMODE
 70
     1
  9
$MAXACTVP
 70
    64
  9
$PINSBASE
 10
0.0
 20
0.0
 30
0.0
  9
$PLIMCHECK
 70
     0
  9
$PEXTMIN
 10
0.0
 20
0.0
 30
0.0
  9
$PEXTMAX
 10
0.0
 20
0.0
 30
0.0
  9
$PLIMMIN
 10
0.0
 20
0.0
  9
$PLIMMAX
 10
12.0
 20
9.0
  9
$UNITMODE
 70
     0
  9
$VISRETAIN
 70
     1
  9
$PLINEGEN
 70
     0
  9
$PSLTSCALE
 70
     1
  9
$TREEDEPTH
 70
  3020
  9
$CMLSTYLE
  2
Standard
  9
$CMLJUST
 70
     0
  9
$CMLSCALE
 40
20.0
  9
$PROXYGRAPHICS
 70
     1
  9
$MEASUREMENT
 70
     1
  9
$CELWEIGHT
370
    -1
  9
$ENDCAPS
280
     0
  9
$JOINSTYLE
280
     0
  9
$LWDISPLAY
290
     0
  9
$INSUNITS
 70
     4
  9
$HYPERLINKBASE
  1

  9
$STYLESHEET
  1

  9
$XEDIT
290
     1
  9
$CEPSNTYPE
380
     0
  9
$PSTYLEMODE
290
     1
  9
$FINGERPRINTGUID
  2
{AFF379AF-A9B8-1A49-ACED-E9EB9BFE2A8A}
  9
$VERSIONGUID
  2
{BAC35B48-9AB0-5340-A5FE-654B66584294}
  9
$EXTNAMES
290
     1
  9
$PSVPSCALE
 40
0.0
  9
$OLESTARTUP
290
     0
  9
$SORTENTS
280
   127
  9
$INDEXCTL
280
     0
  9
$HIDETEXT
280
     1
  9
$XCLIPFRAME
280
     2
  9
$HALOGAP
280
     0
  9
$OBSCOLOR
 70
   257
  9
$OBSLTYPE
280
     0
  9
$INTERSECTIONDISPLAY
280
     0
  9
$INTERSECTIONCOLOR
 70
   257
  9
$DIMASSOC
280
     2
  9
$PROJECTNAME
  1

  9
$CAMERADISPLAY
290
     0
  9
$LENSLENGTH
 40
50.0
  9
$CAMERAHEIGHT
 40
0.0
  9
$STEPSPERSEC
 40
2.0
  9
$STEPSIZE
 40
6.0
  9
$3DDWFPREC
 40
2.0
  9
$PSOLWIDTH
 40
5.0
  9
$PSOLHEIGHT
 40
80.0
  9
$LOFTANG1
 40
1.570796326794896
  9
$LOFTANG2
 40
1.570796326794896
  9
$LOFTMAG1
 40
0.0
  9
$LOFTMAG2
 40
0.0
  9
$LOFTPARAM
 70
     7
  9
$LOFTNORMALS
280
     1
  9
$LATITUDE
 40
37.795
  9
$LONGITUDE
 40
-122.394
  9
$NORTHDIRECTION
 40
0.0
  9
$TIMEZONE
 70
 -8000
  9
$LIGHTGLYPHDISPLAY
280
     1
  9
$TILEMODELIGHTSYNCH
280
     1
  9
$CMATERIAL
347
EC
  9
$SOLIDHIST
280
     0
  9
$SHOWHIST
280
     1
  9
$DWFFRAME
280
     2
  9
$DGNFRAME
280
     0
  9
$REALWORLDSCALE
290
     1
  9
$INTERFERECOLOR
 62
     1
  9
$INTERFEREOBJVS
345
F9
  9
$INTERFEREVPVS
346
F6
  9
$CSHADOW
280
     0
  9
$SHADOWPLANELOCATION
 40
0.0
  0
ENDSEC
  0
SECTION
  2
CLASSES
  0
CLASS
  1
ACDBDICTIONARYWDFLT
  2
AcDbDictionaryWithDefault
  3
ObjectDBX Classes
 90
        0
 91
        1
280
     0
281
     0
  0
CLASS
  1
DICTIONARYVAR
  2
AcDbDictionaryVar
  3
ObjectDBX Classes
 90
        0
 91
       13
280
     0
281
     0
  0
CLASS
  1
TABLESTYLE
  2
AcDbTableStyle
  3
ObjectDBX Classes
 90
     4095
 91
        1
280
     0
281
     0
  0
CLASS
  1
MATERIAL
  2
AcDbMaterial
  3
ObjectDBX Classes
 90
     1153
 91
        3
280
     0
281
     0
  0
CLASS
  1
VISUALSTYLE
  2
AcDbVisualStyle
  3
ObjectDBX Classes
 90
     4095
 91
       24
280
     0
281
     0
  0
CLASS
  1
SCALE
  2
AcDbScale
  3
ObjectDBX Classes
 90
     1153
 91
       17
280
     0
281
     0
  0
CLASS
  1
MLEADERSTYLE
  2
AcDbMLeaderStyle
  3
ACDB_MLEADERSTYLE_CLASS
 90
     4095
 91
        2
280
     0
281
     0
  0
CLASS
  1
CELLSTYLEMAP
  2
AcDbCellStyleMap
  3
ObjectDBX Classes
 90
     1152
 91
        1
280
     0
281
     0
  0
CLASS
  1
EXACXREFPANELOBJECT
  2
ExAcXREFPanelObject
  3
EXAC_ESW
 90
     1025
 91
        0
280
     0
281
     0
  0
CLASS
  1
NPOCOLLECTION
  2
AcDbImpNonPersistentObjectsCollection
  3
ObjectDBX Classes
 90
     1153
 91
        0
280
     0
281
     0
  0
CLASS
  1
LAYER_INDEX
  2
AcDbLayerIndex
  3
ObjectDBX Classes
 90
        0
 91
        0
280
     0
281
     0
  0
CLASS
  1
SPATIAL_INDEX
  2
AcDbSpatialIndex
  3
ObjectDBX Classes
 90
        0
 91
        0
280
     0
281
     0
  0
CLASS
  1
IDBUFFER
  2
AcDbIdBuffer
  3
ObjectDBX Classes
 90
        0
 91
        0
280
     0
281
     0
  0
CLASS
  1
ACDBSECTIONVIEWSTYLE
  2
AcDbSectionViewStyle
  3
ObjectDBX Classes
 90
     1025
 91
        2
280
     0
281
     0
  0
CLASS
  1
ACDBDETAILVIEWSTYLE
  2
AcDbDetailViewStyle
  3
ObjectDBX Classes
 90
     1025
 91
        2
280
     0
281
     0
  0
CLASS
  1
MULTILEADER
  2
AcDbMLeader
  3
ACDB_MLEADER_CLASS
 90
     1025
 91
        4
280
     0
281
     1
  0
CLASS
  1
SORTENTSTABLE
  2
AcDbSortentsTable
  3
ObjectDBX Classes
 90
        0
 91
        0
280
     0
281
     0
  0
CLASS
  1
PLOTSETTINGS
  2
AcDbPlotSettings
  3
ObjectDBX Classes
 90
        0
 91
        1
280
     0
281
     0
  0
ENDSEC
  0
SECTION
  2
TABLES
  0
TABLE
  2
VPORT
  5
8
330
0
100
AcDbSymbolTable
 70
     1
  0
VPORT
  5
EA
330
8
100
AcDbSymbolTableRecord
100
AcDbViewportTableRecord
  2
*Active
 70
     0
 10
0.0
 20
0.0
 11
1.0
 21
1.0
 12
511.9377637676001
 22
396.6109140749935
 13
0.0
 23
0.0
 14
10.0
 24
10.0
 15
10.0
 25
10.0
 16
0.0
 26
0.0
 36
1.0
 17
0.0
 27
0.0
 37
0.0
 40
308.0357888903689
 41
2.05231866825208
 42
50.0
 43
0.0
 44
0.0
 50
0.0
 51
0.0
 71
     0
 72
  1000
 73
     1
 74
     3
 75
     0
 76
     1
 77
     0
 78
     0
281
     0
 65
     1
110
0.0
120
0.0
130
0.0
111
1.0
121
0.0
131
0.0
112
0.0
122
1.0
132
0.0
 79
     0
146
0.0
348
F5
 60
     3
 61
     5
292
     1
282
     1
141
0.0
142
0.0
 63
   250
421
  3355443
1001
ACAD_NAV_VCDISPLAY
1070
     3
  0
ENDTAB
  0
TABLE
  2
LTYPE
  5
5
330
0
100
AcDbSymbolTable
 70
     2
  0
LTYPE
  5
14
330
5
100
AcDbSymbolTableRecord
100
AcDbLinetypeTableRecord
  2
ByBlock
 70
     0
  3

 72
    65
 73
     0
 40
0.0
  0
LTYPE
  5
15
330
5
100
AcDbSymbolTableRecord
100
AcDbLinetypeTableRecord
  2
ByLayer
 70
     0
  3

 72
    65
 73
     0
 40
0.0
  0
LTYPE
  5
16
330
5
100
AcDbSymbolTableRecord
100
AcDbLinetypeTableRecord
  2
Continuous
 70
     0
  3
Solid line
 72
    65
 73
     0
 40
0.0
  0
ENDTAB
  0
TABLE
  2
LAYER
  5
2
102
{ACAD_XDICTIONARY
360
1FF
102
}
330
0
100
AcDbSymbolTable
 70
     6
  0
LAYER
  5
10
102
{ACAD_XDICTIONARY
360
13C
102
}
330
2
100
AcDbSymbolTableRecord
100
AcDbLayerTableRecord
  2
0
 70
     0
 62
     7
  6
Continuous
370
    -3
390
F
347
EE
348
0
  0
LAYER
  5
28D
102
{ACAD_XDICTIONARY
360
28E
102
}
330
2
100
AcDbSymbolTableRecord
100
AcDbLayerTableRecord
  2
図面枠
 70
     0
 62
     7
  6
Continuous
370
    -3
390
F
347
EE
348
0
  0
LAYER
  5
28F
330
2
100
AcDbSymbolTableRecord
100
AcDbLayerTableRecord
  2
躯体・通線物他
 70
     0
 62
     7
  6
Continuous
370
    -3
390
F
347
EE
348
0
1001
AcAecLayerStandard
1000

1000

1001
AcCmTransparency
1071
        0
  0
LAYER
  5
290
330
2
100
AcDbSymbolTableRecord
100
AcDbLayerTableRecord
  2
防火材
 70
     0
 62
     7
  6
Continuous
370
    -3
390
F
347
EE
348
0
1001
AcAecLayerStandard
1000

1000

1001
AcCmTransparency
1071
        0
  0
LAYER
  5
291
330
2
100
AcDbSymbolTableRecord
100
AcDbLayerTableRecord
  2
文字
 70
     0
 62
     7
  6
Continuous
370
    -3
390
F
347
EE
348
0
1001
AcAecLayerStandard
1000

1000

1001
AcCmTransparency
1071
        0
  0
LAYER
  5
292
330
2
100
AcDbSymbolTableRecord
100
AcDbLayerTableRecord
  2
寸法
 70
     0
 62
     7
  6
Continuous
370
    -3
390
F
347
EE
348
0
1001
AcAecLayerStandard
1000

1000

1001
AcCmTransparency
1071
        0
  0
ENDTAB
  0
TABLE
  2
STYLE
  5
3
330
0
100
AcDbSymbolTable
 70
     2
  0
STYLE
  5
11
330
3
100
AcDbSymbolTableRecord
100
AcDbTextStyleTableRecord
  2
Standard
 70
     0
 40
0.0
 41
1.0
 50
0.0
 71
     0
 42
2.5
  3
arial.ttf
  4

1001
ACAD
1000
Arial
1071
       34
  0
STYLE
  5
132
330
3
100
AcDbSymbolTableRecord
100
AcDbTextStyleTableRecord
  2
Annotative
 70
     0
 40
0.0
 41
1.0
 50
0.0
 71
     0
 42
2.5
  3
arial.ttf
  4

1001
AcadAnnotative
1000
AnnotativeData
1002
{
1070
     1
1070
     1
1002
}
1001
ACAD
1000
Arial
1071
       34
  0
ENDTAB
  0
TABLE
  2
VIEW
  5
6
330
0
100
AcDbSymbolTable
 70
     1
  0
ENDTAB
  0
TABLE
  2
UCS
  5
7
330
0
100
AcDbSymbolTable
 70
     0
  0
ENDTAB
  0
TABLE
  2
APPID
  5
9
330
0
100
AcDbSymbolTable
 70
    13
  0
APPID
  5
12
330
9
100
AcDbSymbolTableRecord
100
AcDbRegAppTableRecord
  2
ACAD
 70
     0
  0
APPID
  5
9E
330
9
100
AcDbSymbolTableRecord
100
AcDbRegAppTableRecord
  2
ACAD_PSEXT
 70
     0
  0
APPID
  5
133
330
9
100
AcDbSymbolTableRecord
100
AcDbRegAppTableRecord
  2
AcadAnnoPO
 70
     0
  0
APPID
  5
134
330
9
100
AcDbSymbolTableRecord
100
AcDbRegAppTableRecord
  2
AcadAnnotative
 70
     0
  0
APPID
  5
135
330
9
100
AcDbSymbolTableRecord
100
AcDbRegAppTableRecord
  2
ACAD_DSTYLE_DIMJAG
 70
     0
  0
APPID
  5
136
330
9
100
AcDbSymbolTableRecord
100
AcDbRegAppTableRecord
  2
ACAD_DSTYLE_DIMTALN
 70
     0
  0
APPID
  5
165
330
9
100
AcDbSymbolTableRecord
100
AcDbRegAppTableRecord
  2
ACAD_MLEADERVER
 70
     0
  0
APPID
  5
217
330
9
100
AcDbSymbolTableRecord
100
AcDbRegAppTableRecord
  2
ACAD_NAV_VCDISPLAY
 70
     0
  0
APPID
  5
293
330
9
100
AcDbSymbolTableRecord
100
AcDbRegAppTableRecord
  2
AcAecLayerStandard
 70
     0
  0
APPID
  5
294
330
9
100
AcDbSymbolTableRecord
100
AcDbRegAppTableRecord
  2
AcCmTransparency
 70
     0
  0
APPID
  5
295
330
9
100
AcDbSymbolTableRecord
100
AcDbRegAppTableRecord
  2
GradientColor1ACI
 70
     0
  0
APPID
  5
296
330
9
100
AcDbSymbolTableRecord
100
AcDbRegAppTableRecord
  2
GradientColor2ACI
 70
     0
  0
APPID
  5
87B
330
9
100
AcDbSymbolTableRecord
100
AcDbRegAppTableRecord
  2
ACAD_EXEMPT_FROM_CAD_STANDARDS
 70
     0
  0
ENDTAB
  0
TABLE
  2
DIMSTYLE
  5
A
330
0
100
AcDbSymbolTable
 70
     3
100
AcDbDimStyleTable
 71
     2
340
27
340
137
  0
DIMSTYLE
105
1B0
330
A
100
AcDbSymbolTableRecord
100
AcDbDimStyleTableRecord
  2
Standard
 70
     0
340
11
  0
DIMSTYLE
105
137
330
A
100
AcDbSymbolTableRecord
100
AcDbDimStyleTableRecord
  2
Annotative
 70
     0
 40
0.0
 41
2.5
 42
0.625
 43
3.75
 44
1.25
 73
     0
 74
     0
 77
     1
 78
     8
140
2.5
141
2.5
143
0.03937007874016
147
0.625
171
     3
172
     1
271
     2
272
     2
274
     3
278
    44
283
     0
284
     8
340
11
1001
AcadAnnotative
1000
AnnotativeData
1002
{
1070
     1
1070
     1
1002
}
1001
ACAD_DSTYLE_DIMJAG
1070
   388
1040
1.5
1001
ACAD_DSTYLE_DIMTALN
1070
   392
1070
     0
  0
DIMSTYLE
105
27
330
A
100
AcDbSymbolTableRecord
100
AcDbDimStyleTableRecord
  2
ISO-25
 70
     0
 41
2.5
 42
0.625
 43
3.75
 44
1.25
 73
     0
 74
     0
 77
     1
 78
     8
140
2.5
141
2.5
143
0.03937007874016
147
0.625
171
     3
172
     1
271
     2
272
     2
274
     3
278
    44
283
     0
284
     8
340
11
  0
ENDTAB
  0
TABLE
  2
BLOCK_RECORD
  5
1
330
0
100
AcDbSymbolTable
 70
     1
  0
BLOCK_RECORD
  5
1F
102
{ACAD_XDICTIONARY
360
1CE
102
}
330
1
100
AcDbSymbolTableRecord
100
AcDbBlockTableRecord
  2
*Model_Space
340
22
 70
     0
280
     1
281
     0
  0
BLOCK_RECORD
  5
D2
330
1
100
AcDbSymbolTableRecord
100
AcDbBlockTableRecord
  2
*Paper_Space
340
D3
 70
     0
280
     1
281
     0
  0
BLOCK_RECORD
  5
D6
330
1
100
AcDbSymbolTableRecord
100
AcDbBlockTableRecord
  2
*Paper_Space0
340
D7
 70
     0
280
     1
281
     0
  0
ENDTAB
  0
ENDSEC
  0
SECTION
  2
BLOCKS
  0
BLOCK
  5
20
330
1F
100
AcDbEntity
  8
0
100
AcDbBlockBegin
  2
*Model_Space
 70
     0
 10
0.0
 20
0.0
 30
0.0
  3
*Model_Space
  1

  0
ENDBLK
  5
21
330
1F
100
AcDbEntity
  8
0
100
AcDbBlockEnd
  0
BLOCK
  5
D4
330
D2
100
AcDbEntity
 67
     1
  8
0
100
AcDbBlockBegin
  2
*Paper_Space
 70
     0
 10
0.0
 20
0.0
 30
0.0
  3
*Paper_Space
  1

  0
ENDBLK
  5
D5
330
D2
100
AcDbEntity
 67
     1
  8
0
100
AcDbBlockEnd
  0
BLOCK
  5
D8
330
D6
100
AcDbEntity
 67
     1
  8
0
100
AcDbBlockBegin
  2
*Paper_Space0
 70
     0
 10
0.0
 20
0.0
 30
0.0
  3
*Paper_Space0
  1

  0
ENDBLK
  5
D9
330
D6
100
AcDbEntity
 67
     1
  8
0
100
AcDbBlockEnd
  0
ENDSEC
  0
SECTION
  2
ENTITIES
  0
LINE
  5
58E
330
1F
100
AcDbEntity
  8
図面枠
  6
Continuous
370
    13
100
AcDbLine
 10
616.9537203830288
 20
530.2066530597485
 30
0.0
 11
616.9537203830288
 21
233.2066530597485
 31
0.0
  0
LINE
  5
58F
330
1F
100
AcDbEntity
  8
図面枠
  6
Continuous
370
    13
100
AcDbLine
 10
406.9537203830289
 20
233.2066530597485
 30
0.0
 11
616.9537203830288
 21
233.2066530597485
 31
0.0
  0
LINE
  5
590
330
1F
100
AcDbEntity
  8
図面枠
  6
Continuous
370
    13
100
AcDbLine
 10
406.9537203830289
 20
530.2066530597485
 30
0.0
 11
406.9537203830289
 21
233.2066530597485
 31
0.0
  0
LINE
  5
591
330
1F
100
AcDbEntity
  8
図面枠
  6
Continuous
370
    13
100
AcDbLine
 10
616.9537203830288
 20
530.2066530597485
 30
0.0
 11
406.9537203830289
 21
530.2066530597485
 31
0.0
  0
LINE
  5
592
330
1F
100
AcDbEntity
  8
図面枠
  6
Continuous
370
    13
100
AcDbLine
 10
616.9537203830288
 20
518.8086445339544
 30
0.0
 11
406.9537203830289
 21
518.8086445339544
 31
0.0
  0
LINE
  5
593
330
1F
100
AcDbEntity
  8
図面枠
  6
Continuous
370
    13
100
AcDbLine
 10
428.0231269504236
 20
530.2066530597485
 30
0.0
 11
428.0231269504236
 21
518.8086445339544
 31
0.0
  0
MULTILEADER
  5
594
330
1F
100
AcDbEntity
  8
文字
  6
Continuous
160
               712
310
C8020000190000000C00000016000000000000C00C00000033000000000000000C00000013000000993A0000C80000002600000027CA5CF770BB7E40B2C4616279BA7E40000000000000000000000000000000000000000000000000000000000000F03F000000000000F03F000000000000000000000000000000002D4E7A
310
7A9395D54E0752C158000010FF06000000010000000000000000000840000000000000F03F0000000000000000000000000000F03F0000000000000000000000000000000000000000000000000000000001000000320000002DFF33FF200030FFB430B730C330AF300000F03F00000000000000000C000000330000000000
310
00000C00000010000000040000000C00000016000000000000C00C00000012000000000000000C00000013000000010000000C0000001400000001000000540000000700000003000000580418B1D27C8040DEF4DA76C6E97D400000000000000000105546FB1984804018E9217FC8CC7D400000000000000000D3590AD983
310
7880408CDB0CA87CE37D4000000000000000000C00000014000000010000000C00000013000000891300003C0000000600000002000000152F1145AB7A804035E8738FA1E67D400000000000000000DCB830B8DD308040182BC8C8DFB07E4000000000000000000C00000013000000112700003C0000000600000002000000
310
DCB830B8DD308040182BC8C8DFB07E40000000000000000061A48270FC2D8040182BC8C8DFB07E4000000000000000000C00000016000000000000C00C00000012000000000000000C00000017000000000000000C000000130000009A3A00003C0000000600000002000000106DE8252BC47E40182BC8C8DFB07E40000000
310
000000000061A48270FC2D8040182BC8C8DFB07E4000000000000000000C00000016000000000000C00C00000012000000000000000C000000170000000D0000000C0000003300000000000000
370
    13
100
AcDbMLeader
270
     2
300
CONTEXT_DATA{
 40
1.0
 10
492.1705341986791
 20
491.0546348399234
 30
0.0
 41
3.0
140
2.0
145
0.09
174
     5
175
     5
176
     2
177
     0
290
     1
304
中空間仕切壁
 11
0.0
 21
0.0
 31
1.0
340
11
 12
517.6582614714063
 22
495.2171348399234
 32
0.0
 13
1.0
 23
0.0
 33
0.0
 42
0.0
 43
32.79875704872052
 44
12.05348814419841
 45
1.0
170
     1
 90
-1073741824
171
     3
172
     5
 91
-1073741824
141
0.0
 92
        0
291
     0
292
     0
173
     0
293
     0
142
0.0
143
0.0
294
     0
295
     0
296
     0
110
526.4113346909225
120
476.7989493679647
130
0.0
111
1.0
121
0.0
131
0.0
112
0.0
122
1.0
132
0.0
297
     0
302
LEADER{
290
     1
291
     1
 10
518.1082614714064
 20
491.0546348399234
 30
0.0
 11
-1.0
 21
0.0
 31
0.0
 90
        0
 40
0.36
304
LEADER_LINE{
 10
528.5126862997731
 20
476.7989493679647
 30
0.0
 91
        0
305
}
271
     0
303
}
272
     9
273
     9
301
}
340
12E
 90
 33904128
170
     1
 91
-1056964608
341
14
171
    -2
290
     1
291
     1
 41
0.36
 42
2.0
172
     2
343
11
173
     5
 95
        5
174
     1
175
     2
 92
-1056964608
292
     0
 93
-1056964608
 10
1.0
 20
1.0
 30
1.0
 43
0.0
176
     0
293
     0
294
     0
178
     0
179
     3
 45
1.0
271
     0
272
     9
273
     9
295
     0
  0
POLYLINE
  5
595
330
1F
100
AcDbEntity
  8
躯体・通線物他
  6
Continuous
370
    13
100
AcDb2dPolyline
 66
     1
 10
0.0
 20
0.0
 30
0.0
  0
VERTEX
  5
596
330
595
100
AcDbEntity
  8
躯体・通線物他
  6
Continuous
370
    13
100
AcDbVertex
100
AcDb2dVertex
 10
528.5126862997731
 20
484.656886533527
 30
0.0
  0
VERTEX
  5
597
330
595
100
AcDbEntity
  8
躯体・通線物他
  6
Continuous
370
    13
100
AcDbVertex
100
AcDb2dVertex
 10
528.5126862997731
 20
446.80846574843
 30
0.0
  0
SEQEND
  5
598
330
595
100
AcDbEntity
  8
躯体・通線物他
  6
Continuous
370
    13
  0
POLYLINE
  5
599
330
1F
100
AcDbEntity
  8
躯体・通線物他
  6
Continuous
370
    13
100
AcDb2dPolyline
 66
     1
 10
0.0
 20
0.0
 30
0.0
  0
VERTEX
  5
59A
330
599
100
AcDbEntity
  8
躯体・通線物他
  6
Continuous
370
    13
100
AcDbVertex
100
AcDb2dVertex
 10
558.5130884663917
 20
484.656886533527
 30
0.0
  0
VERTEX
  5
59B
330
599
100
AcDbEntity
  8
躯体・通線物他
  6
Continuous
370
    13
100
AcDbVertex
100
AcDb2dVertex
 10
558.5130884663916
 20
446.8084657484298
 30
0.0
  0
SEQEND
  5
59C
330
599
100
AcDbEntity
  8
躯体・通線物他
  6
Continuous
370
    13
  0
POLYLINE
  5
59D
330
1F
100
AcDbEntity
  8
躯体・通線物他
  6
Continuous
370
    13
100
AcDb2dPolyline
 66
     1
 10
0.0
 20
0.0
 30
0.0
  0
VERTEX
  5
59E
330
59D
100
AcDbEntity
  8
躯体・通線物他
  6
Continuous
370
    13
100
AcDbVertex
100
AcDb2dVertex
 10
534.5129275997448
 20
487.9716795302136
 30
0.0
  0
VERTEX
  5
59F
330
59D
100
AcDbEntity
  8
躯体・通線物他
  6
Continuous
370
    13
100
AcDbVertex
100
AcDb2dVertex
 10
534.5129275997432
 20
446.8084657484298
 30
0.0
  0
SEQEND
  5
5A0
330
59D
100
AcDbEntity
  8
躯体・通線物他
  6
Continuous
370
    13
  0
POLYLINE
  5
5A1
330
1F
100
AcDbEntity
  8
躯体・通線物他
  6
Continuous
370
    13
100
AcDb2dPolyline
 66
     1
 10
0.0
 20
0.0
 30
0.0
  0
VERTEX
  5
5A2
330
5A1
100
AcDbEntity
  8
躯体・通線物他
  6
Continuous
370
    13
100
AcDbVertex
100
AcDb2dVertex
 10
534.5129275997448
 20
487.9724328971374
 30
0.0
  0
VERTEX
  5
5A3
330
5A1
100
AcDbEntity
  8
躯体・通線物他
  6
Continuous
370
    13
100
AcDbVertex
100
AcDb2dVertex
 10
534.5129275997448
 20
487.9716795302136
 30
0.0
  0
SEQEND
  5
5A4
330
5A1
100
AcDbEntity
  8
躯体・通線物他
  6
Continuous
370
    13
  0
POLYLINE
  5
5A5
330
1F
100
AcDbEntity
  8
躯体・通線物他
  6
Continuous
370
    13
100
AcDb2dPolyline
 66
     1
 10
0.0
 20
0.0
 30
0.0
  0
VERTEX
  5
5A6
330
5A5
100
AcDbEntity
  8
躯体・通線物他
  6
Continuous
370
    13
100
AcDbVertex
100
AcDb2dVertex
 10
531.512806949759
 20
487.005930216721
 30
0.0
  0
VERTEX
  5
5A7
330
5A5
100
AcDbEntity
  8
躯体・通線物他
  6
Continuous
370
    13
100
AcDbVertex
100
AcDb2dVertex
 10
531.5128069497588
 20
446.8084657484298
 30
0.0
  0
SEQEND
  5
5A8
330
5A5
100
AcDbEntity
  8
躯体・通線物他
  6
Continuous
370
    13
  0
POLYLINE
  5
5A9
330
1F
100
AcDbEntity
  8
躯体・通線物他
  6
Continuous
370
    13
100
AcDb2dPolyline
 66
     1
 10
0.0
 20
0.0
 30
0.0
  0
VERTEX
  5
5AA
330
5A9
100
AcDbEntity
  8
躯体・通線物他
  6
Continuous
370
    13
100
AcDbVertex
100
AcDb2dVertex
 10
531.512806949759
 20
487.0075293186673
 30
0.0
  0
VERTEX
  5
5AB
330
5A9
100
AcDbEntity
  8
躯体・通線物他
  6
Continuous
370
    13
100
AcDbVertex
100
AcDb2dVertex
 10
531.512806949759
 20
487.005930216721
 30
0.0
  0
SEQEND
  5
5AC
330
5A9
100
AcDbEntity
  8
躯体・通線物他
  6
Continuous
370
    13
  0
POLYLINE
  5
5AD
330
1F
100
AcDbEntity
  8
躯体・通線物他
  6
Continuous
370
    13
100
AcDb2dPolyline
 66
     1
 10
0.0
 20
0.0
 30
0.0
  0
VERTEX
  5
5AE
330
5AD
100
AcDbEntity
  8
躯体・通線物他
  6
Continuous
370
    13
100
AcDbVertex
100
AcDb2dVertex
 10
555.5129678164059
 20
482.3067172001073
 30
0.0
  0
VERTEX
  5
5AF
330
5AD
100
AcDbEntity
  8
躯体・通線物他
  6
Continuous
370
    13
100
AcDbVertex
100
AcDb2dVertex
 10
555.512967816406
 20
446.8084657484298
 30
0.0
  0
SEQEND
  5
5B0
330
5AD
100
AcDbEntity
  8
躯体・通線物他
  6
Continuous
370
    13
  0
POLYLINE
  5
5B1
330
1F
100
AcDbEntity
  8
躯体・通線物他
  6
Continuous
370
    13
100
AcDb2dPolyline
 66
     1
 10
0.0
 20
0.0
 30
0.0
  0
VERTEX
  5
5B2
330
5B1
100
AcDbEntity
  8
躯体・通線物他
  6
Continuous
370
    13
100
AcDbVertex
100
AcDb2dVertex
 10
552.5128471664199
 20
481.3414830010478
 30
0.0
  0
VERTEX
  5
5B3
330
5B1
100
AcDbEntity
  8
躯体・通線物他
  6
Continuous
370
    13
100
AcDbVertex
100
AcDb2dVertex
 10
552.5128471664199
 20
446.80846574843
 30
0.0
  0
SEQEND
  5
5B4
330
5B1
100
AcDbEntity
  8
躯体・通線物他
  6
Continuous
370
    13
  0
POLYLINE
  5
5B5
330
1F
100
AcDbEntity
  8
躯体・通線物他
  6
Continuous
370
    13
100
AcDb2dPolyline
 66
     1
 10
0.0
 20
0.0
 30
0.0
  0
VERTEX
  5
5B6
330
5B5
100
AcDbEntity
  8
躯体・通線物他
  6
Continuous
370
    13
100
AcDbVertex
100
AcDb2dVertex
 10
528.5126862997731
 20
374.656354588079
 30
0.0
  0
VERTEX
  5
5B7
330
5B5
100
AcDbEntity
  8
躯体・通線物他
  6
Continuous
370
    13
100
AcDbVertex
100
AcDb2dVertex
 10
528.512686299773
 20
409.6566200555616
 30
0.0
  0
SEQEND
  5
5B8
330
5B5
100
AcDbEntity
  8
躯体・通線物他
  6
Continuous
370
    13
  0
POLYLINE
  5
5B9
330
1F
100
AcDbEntity
  8
躯体・通線物他
  6
Continuous
370
    13
100
AcDb2dPolyline
 66
     1
 10
0.0
 20
0.0
 30
0.0
  0
VERTEX
  5
5BA
330
5B9
100
AcDbEntity
  8
躯体・通線物他
  6
Continuous
370
    13
100
AcDbVertex
100
AcDb2dVertex
 10
558.512707466436
 20
374.656354588079
 30
0.0
  0
VERTEX
  5
5BB
330
5B9
100
AcDbEntity
  8
躯体・通線物他
  6
Continuous
370
    13
100
AcDbVertex
100
AcDb2dVertex
 10
558.5127074664359
 20
409.6566200555584
 30
0.0
  0
SEQEND
  5
5BC
330
5B9
100
AcDbEntity
  8
躯体・通線物他
  6
Continuous
370
    13
  0
POLYLINE
  5
5BD
330
1F
100
AcDbEntity
  8
躯体・通線物他
  6
Continuous
370
    13
100
AcDb2dPolyline
 66
     1
 10
0.0
 20
0.0
 30
0.0
  0
VERTEX
  5
5BE
330
5BD
100
AcDbEntity
  8
躯体・通線物他
  6
Continuous
370
    13
100
AcDbVertex
100
AcDb2dVertex
 10
552.5128471664199
 20
371.3383290746403
 30
0.0
  0
VERTEX
  5
5BF
330
5BD
100
AcDbEntity
  8
躯体・通線物他
  6
Continuous
370
    13
100
AcDbVertex
100
AcDb2dVertex
 10
552.5128471664199
 20
409.6566200555616
 30
0.0
  0
SEQEND
  5
5C0
330
5BD
100
AcDbEntity
  8
躯体・通線物他
  6
Continuous
370
    13
  0
POLYLINE
  5
5C1
330
1F
100
AcDbEntity
  8
躯体・通線物他
  6
Continuous
370
    13
100
AcDb2dPolyline
 66
     1
 10
0.0
 20
0.0
 30
0.0
  0
VERTEX
  5
5C2
330
5C1
100
AcDbEntity
  8
躯体・通線物他
  6
Continuous
370
    13
100
AcDbVertex
100
AcDb2dVertex
 10
555.5125444831213
 20
372.3033478031373
 30
0.0
  0
VERTEX
  5
5C3
330
5C1
100
AcDbEntity
  8
躯体・通線物他
  6
Continuous
370
    13
100
AcDbVertex
100
AcDb2dVertex
 10
555.5125444831213
 20
409.6566200555616
 30
0.0
  0
SEQEND
  5
5C4
330
5C1
100
AcDbEntity
  8
躯体・通線物他
  6
Continuous
370
    13
  0
POLYLINE
  5
5C5
330
1F
100
AcDbEntity
  8
躯体・通線物他
  6
Continuous
370
    13
100
AcDb2dPolyline
 66
     1
 10
0.0
 20
0.0
 30
0.0
  0
VERTEX
  5
5C6
330
5C5
100
AcDbEntity
  8
躯体・通線物他
  6
Continuous
370
    13
100
AcDbVertex
100
AcDb2dVertex
 10
534.5129275997448
 20
377.968525603806
 30
0.0
  0
VERTEX
  5
5C7
330
5C5
100
AcDbEntity
  8
躯体・通線物他
  6
Continuous
370
    13
100
AcDbVertex
100
AcDb2dVertex
 10
534.5129275997448
 20
409.6566200555616
 30
0.0
  0
SEQEND
  5
5C8
330
5C5
100
AcDbEntity
  8
躯体・通線物他
  6
Continuous
370
    13
  0
POLYLINE
  5
5C9
330
1F
100
AcDbEntity
  8
躯体・通線物他
  6
Continuous
370
    13
100
AcDb2dPolyline
 66
     1
 10
0.0
 20
0.0
 30
0.0
  0
VERTEX
  5
5CA
330
5C9
100
AcDbEntity
  8
躯体・通線物他
  6
Continuous
370
    13
100
AcDbVertex
100
AcDb2dVertex
 10
531.5123836164758
 20
377.0025607069876
 30
0.0
  0
VERTEX
  5
5CB
330
5C9
100
AcDbEntity
  8
躯体・通線物他
  6
Continuous
370
    13
100
AcDbVertex
100
AcDb2dVertex
 10
531.5123836164759
 20
409.6566200555619
 30
0.0
  0
SEQEND
  5
5CC
330
5C9
100
AcDbEntity
  8
躯体・通線物他
  6
Continuous
370
    13
  0
ARC
  5
5CD
330
1F
100
AcDbEntity
  8
躯体・通線物他
  6
Continuous
370
    13
100
AcDbCircle
 10
536.0132545228541
 20
478.1680384848923
 30
0.0
 40
9.91777992404102
100
AcDbArc
 50
40.86685288041778
 51
139.1361210353918
  0
ARC
  5
5CE
330
1F
100
AcDbEntity
  8
躯体・通線物他
  6
Continuous
370
    13
100
AcDbCircle
 10
551.0139665578276
 20
491.1453452778705
 30
0.0
 40
9.91777992404102
100
AcDbArc
 50
220.8638789646081
 51
319.1331471197207
  0
ARC
  5
5CF
330
1F
100
AcDbEntity
  8
躯体・通線物他
  6
Continuous
370
    13
100
AcDbCircle
 10
536.0132545228541
 20
368.1648845584846
 30
0.0
 40
9.91777992404102
100
AcDbArc
 50
40.86685288041778
 51
139.1361210353918
  0
ARC
  5
5D0
330
1F
100
AcDbEntity
  8
躯体・通線物他
  6
Continuous
370
    13
100
AcDbCircle
 10
551.0139665578276
 20
381.1421913514628
 30
0.0
 40
9.91777992404102
100
AcDbArc
 50
220.8638789646081
 51
319.1331471197207
  0
LINE
  5
5D1
330
1F
100
AcDbEntity
  8
躯体・通線物他
  6
Continuous
370
    13
100
AcDbLine
 10
528.5126862997731
 20
460.5827348530351
 30
0.0
 11
534.5129275997437
 21
462.3308483679211
 31
0.0
  0
LINE
  5
5D2
330
1F
100
AcDbEntity
  8
躯体・通線物他
  6
Continuous
370
    13
100
AcDbLine
 10
552.5128471664201
 20
467.5749545777034
 30
0.0
 11
558.5130884663917
 21
469.3230680925899
 31
0.0
  0
LINE
  5
5D3
330
1F
100
AcDbEntity
  8
躯体・通線物他
  6
Continuous
370
    13
100
AcDbLine
 10
528.5126862997731
 20
462.4445396016913
 30
0.0
 11
534.5129275997439
 21
464.1926531165772
 31
0.0
  0
LINE
  5
5D4
330
1F
100
AcDbEntity
  8
躯体・通線物他
  6
Continuous
370
    13
100
AcDbLine
 10
552.5128471664201
 20
469.4367593263596
 30
0.0
 11
558.5130884663917
 21
471.184872841246
 31
0.0
  0
LINE
  5
5D5
330
1F
100
AcDbEntity
  8
躯体・通線物他
  6
Continuous
370
    13
100
AcDbLine
 10
528.5126862997731
 20
464.5170567505679
 30
0.0
 11
534.512927599744
 21
466.2651702654539
 31
0.0
  0
LINE
  5
5D6
330
1F
100
AcDbEntity
  8
躯体・通線物他
  6
Continuous
370
    13
100
AcDbLine
 10
552.5128471664201
 20
471.5092764752362
 30
0.0
 11
558.5130884663917
 21
473.2573899901226
 31
0.0
  0
LINE
  5
5D7
330
1F
100
AcDbEntity
  8
躯体・通線物他
  6
Continuous
370
    13
100
AcDbLine
 10
528.5126862997731
 20
385.2399414063571
 30
0.0
 11
534.5129275997437
 21
386.988054921243
 31
0.0
  0
LINE
  5
5D8
330
1F
100
AcDbEntity
  8
躯体・通線物他
  6
Continuous
370
    13
100
AcDbLine
 10
552.5128471664201
 20
392.2321611310254
 30
0.0
 11
558.5130884663917
 21
393.9802746459118
 31
0.0
  0
LINE
  5
5D9
330
1F
100
AcDbEntity
  8
躯体・通線物他
  6
Continuous
370
    13
100
AcDbLine
 10
528.5126862997731
 20
387.1017461550132
 30
0.0
 11
534.5129275997439
 21
388.8498596698992
 31
0.0
  0
LINE
  5
5DA
330
1F
100
AcDbEntity
  8
躯体・通線物他
  6
Continuous
370
    13
100
AcDbLine
 10
552.5128471664201
 20
394.0939658796815
 30
0.0
 11
558.5130884663917
 21
395.8420793945679
 31
0.0
  0
LINE
  5
5DB
330
1F
100
AcDbEntity
  8
躯体・通線物他
  6
Continuous
370
    13
100
AcDbLine
 10
528.5126862997731
 20
389.1742633038898
 30
0.0
 11
534.512927599744
 21
390.9223768187758
 31
0.0
  0
LINE
  5
5DC
330
1F
100
AcDbEntity
  8
躯体・通線物他
  6
Continuous
370
    13
100
AcDbLine
 10
552.5128471664201
 20
396.1664830285581
 30
0.0
 11
558.5130884663917
 21
397.9145965434445
 31
0.0
  0
MTEXT
  5
5DD
330
1F
100
AcDbEntity
  8
文字
  6
Continuous
370
    13
100
AcDbMText
 10
433.1890147664243
 20
525.687640139064
 30
0.0
 40
3.0
 41
119.1698358101812
 46
0.0
 71
     1
 72
     5
  1
【電気設備】丸穴工法　遮音区画　中空間仕切遮音壁
 73
     1
 44
0.75
101
Embedded Object
 70
     1
 10
1.0
 20
0.0
 30
0.0
 11
433.1890147664243
 21
525.687640139064
 31
0.0
 40
119.1698358101812
 41
0.0
 42
96.68181818181817
 43
4.142045454545454
 71
     2
 72
     1
 44
119.1698358101812
 45
0.8849620939533352
 73
     0
 74
     0
 46
5.521478102698868
  0
MTEXT
  5
5DE
330
1F
100
AcDbEntity
  8
文字
  6
Continuous
370
    13
100
AcDbMText
 10
416.8629113516749
 20
525.687640139064
 30
0.0
 40
3.0
 41
4.178825393072102
 46
0.0
 71
     1
 72
     5
  1
{\fMS PGothic|b0|i0|c128|p50;1}
 73
     1
 44
0.75
101
Embedded Object
 70
     1
 10
1.0
 20
0.0
 30
0.0
 11
416.8629113516749
 21
525.687640139064
 31
0.0
 40
4.178825393072102
 41
0.0
 42
0.9034090909090908
 43
3.0
 71
     2
 72
     1
 44
4.178825393072102
 45
0.8849620939533352
 73
     0
 74
     0
 46
4.724757535192768
  0
MTEXT
  5
5DF
330
1F
100
AcDbEntity
  8
文字
  6
Continuous
370
    13
100
AcDbMText
 10
592.7998710407491
 20
515.8892291696161
 30
0.0
 40
3.0
 41
21.16849155225112
 46
0.0
 71
     1
 72
     5
  1
単位：ｍｍ
 73
     1
 44
0.75
101
Embedded Object
 70
     1
 10
1.0
 20
0.0
 30
0.0
 11
592.7998710407491
 21
515.8892291696161
 31
0.0
 40
21.16849155225112
 41
0.0
 42
18.51136363636364
 43
3.886363636363636
 71
     2
 72
     1
 44
21.16849155225112
 45
0.8849620939533352
 73
     0
 74
     0
 46
10.53238702043993
  0
MTEXT
  5
5E0
330
1F
100
AcDbEntity
  8
文字
  6
Continuous
370
    13
100
AcDbMText
 10
445.1764368105359
 20
395.4925194165869
 30
0.0
 40
3.0
 41
30.05778784164626
 46
0.0
 71
     1
 72
     5
  1
{\fMS PGothic|b0|i0|c128|p50;正面図}
 73
     1
 44
0.75
101
Embedded Object
 70
     1
 10
1.0
 20
0.0
 30
0.0
 11
445.1764368105359
 21
395.4925194165869
 31
0.0
 40
30.05778784164626
 41
0.0
 42
12.32386363636363
 43
3.664772727272727
 71
     2
 72
     1
 44
30.05778784164626
 45
0.8849620939533352
 73
     0
 74
     0
 46
5.349968647182979
  0
LINE
  5
5E1
330
1F
100
AcDbEntity
  8
図面枠
  6
Continuous
370
    13
100
AcDbLine
 10
416.3192774463598
 20
327.7758907476036
 30
0.0
 11
607.588163319698
 21
327.7758907476036
 31
0.0
  0
LINE
  5
5E2
330
1F
100
AcDbEntity
  8
図面枠
  6
Continuous
370
    13
100
AcDbLine
 10
416.3192774463598
 20
327.7758907476036
 30
0.0
 11
416.3192774463598
 21
286.699088232155
 31
0.0
  0
LINE
  5
5E3
330
1F
100
AcDbEntity
  8
図面枠
  6
Continuous
370
    13
100
AcDbLine
 10
607.588163319698
 20
322.4661181838835
 30
0.0
 11
416.3192774463598
 21
322.4661181838835
 31
0.0
  0
LINE
  5
5E4
330
1F
100
AcDbEntity
  8
図面枠
  6
Continuous
370
    13
100
AcDbLine
 10
607.588163319698
 20
311.8465730564435
 30
0.0
 11
416.3192774463598
 21
311.8465730564435
 31
0.0
  0
LINE
  5
5E5
330
1F
100
AcDbEntity
  8
図面枠
  6
Continuous
370
    13
100
AcDbLine
 10
607.588163319698
 20
301.2270279290033
 30
0.0
 11
416.3192774463598
 21
301.2270279290033
 31
0.0
  0
MTEXT
  5
5E6
330
1F
100
AcDbEntity
  8
文字
  6
Continuous
370
    13
100
AcDbMText
 10
421.4851652623607
 20
320.8700264613142
 30
0.0
 40
2.0
 41
30.73155332927162
 46
0.0
 71
     1
 72
     5
  1
貫通する壁の構造等
 73
     1
 44
0.75
101
Embedded Object
 70
     1
 10
1.0
 20
0.0
 30
0.0
 11
421.4851652623607
 21
320.8700264613142
 31
0.0
 40
30.73155332927162
 41
0.0
 42
25.26136363636364
 43
2.659090909090909
 71
     2
 72
     1
 44
30.73155332927162
 45
0.8849620939533352
 73
     0
 74
     0
 46
2.580461047574065
  0
MTEXT
  5
5E7
330
1F
100
AcDbEntity
  8
文字
  6
Continuous
370
    13
100
AcDbMText
 10
421.4851652623607
 20
310.2504813338735
 30
0.0
 40
2.0
 41
30.73155332927162
 46
0.0
 71
     1
 72
     5
  1
施工方法
 73
     1
 44
0.75
101
Embedded Object
 70
     1
 10
1.0
 20
0.0
 30
0.0
 11
421.4851652623607
 21
310.2504813338735
 31
0.0
 40
30.73155332927162
 41
0.0
 42
11.31818181818182
 43
2.636363636363636
 71
     2
 72
     1
 44
30.73155332927162
 45
0.8849620939533352
 73
     0
 74
     0
 46
2.580461047574065
  0
LINE
  5
5E8
330
1F
100
AcDbEntity
  8
図面枠
  6
Continuous
370
    13
100
AcDbLine
 10
538.2316936953568
 20
327.7758907476036
 30
0.0
 11
416.3192774463598
 21
327.7758907476036
 31
0.0
  0
MTEXT
  5
5E9
330
1F
100
AcDbEntity
  8
文字
  6
Continuous
370
    13
100
AcDbMText
 10
473.2083406761582
 20
326.1381972290315
 30
0.0
 40
2.0
 41
30.73155332927162
 46
0.0
 71
     1
 72
     5
  1
項目
 73
     1
 44
0.75
101
Embedded Object
 70
     1
 10
1.0
 20
0.0
 30
0.0
 11
473.2083406761582
 21
326.1381972290315
 31
0.0
 40
30.73155332927162
 41
0.0
 42
5.056818181818181
 43
2.522727272727272
 71
     2
 72
     1
 44
30.73155332927162
 45
0.8849620939533352
 73
     0
 74
     0
 46
2.580461047574065
  0
MTEXT
  5
5EA
330
1F
100
AcDbEntity
  8
文字
  6
Continuous
370
    13
100
AcDbMText
 10
523.4547984117353
 20
320.8700264613142
 30
0.0
 40
2.0
 41
60.85212461073424
 46
0.0
 71
     1
 72
     5
  1
遮音区画　中空間仕切遮音壁
 73
     1
 44
0.75
101
Embedded Object
 70
     1
 10
1.0
 20
0.0
 30
0.0
 11
523.4547984117353
 21
320.8700264613142
 31
0.0
 40
60.85212461073424
 41
0.0
 42
36.55681818181818
 43
2.625
 71
     2
 72
     1
 44
60.85212461073424
 45
0.8849620939533352
 73
     0
 74
     0
 46
5.45832814859634
  0
LINE
  5
5EB
330
1F
100
AcDbEntity
  8
図面枠
  6
Continuous
370
    13
100
AcDbLine
 10
607.588163319698
 20
327.7758907476036
 30
0.0
 11
607.5881633196978
 21
286.699088232155
 31
0.0
  0
MTEXT
  5
5EC
330
1F
100
AcDbEntity
  8
文字
  6
Continuous
370
    13
100
AcDbMText
 10
554.1303268926734
 20
326.1381972290315
 30
0.0
 40
2.0
 41
30.73155332927162
 46
0.0
 71
     1
 72
     5
  1
仕様
 73
     1
 44
0.75
101
Embedded Object
 70
     1
 10
1.0
 20
0.0
 30
0.0
 11
554.1303268926734
 21
326.1381972290315
 31
0.0
 40
30.73155332927162
 41
0.0
 42
5.556818181818181
 43
2.625
 71
     2
 72
     1
 44
30.73155332927162
 45
0.8849620939533352
 73
     0
 74
     0
 46
2.580461047574065
  0
LINE
  5
5ED
330
1F
100
AcDbEntity
  8
防火材
  6
Continuous
370
    13
100
AcDbLine
 10
528.5126862997742
 20
441.182578752162
 30
0.0
 11
523.8525389507606
 21
441.1825787521618
 31
0.0
  0
LINE
  5
5EE
330
1F
100
AcDbEntity
  8
防火材
  6
Continuous
370
    13
100
AcDbLine
 10
523.3069989405533
 20
441.1825787521618
 30
0.0
 11
488.512687057561
 21
441.182578752162
 31
0.0
  0
ARC
  5
5EF
330
1F
100
AcDbEntity
  8
防火材
  6
Continuous
370
    13
100
AcDbCircle
 10
491.1928364084316
 20
433.8565043771514
 30
0.0
 40
3.625835852024524
100
AcDbArc
 50
137.6617049081629
 51
200.0653292722919
  0
ARC
  5
5F0
330
1F
100
AcDbEntity
  8
防火材
  6
Continuous
370
    13
100
AcDbCircle
 10
490.4823132208439
 20
438.7405539605096
 30
0.0
 40
3.13734159856804
100
AcDbArc
 50
128.8880693058853
 51
231.1119306949636
  0
ARC
  5
5F1
330
1F
100
AcDbEntity
  8
防火材
  6
Continuous
370
    13
100
AcDbCircle
 10
486.2059274809694
 20
438.7405539604833
 30
0.0
 40
3.359259565365157
100
AcDbArc
 50
313.3684180334187
 51
46.63158196656635
  0
ARC
  5
5F2
330
1F
100
AcDbEntity
  8
防火材
  6
Continuous
370
    13
100
AcDbCircle
 10
493.3990863852618
 20
433.918911619824
 30
0.0
 40
1.285383132210041
100
AcDbArc
 50
132.9655884367103
 51
227.0351006649563
  0
ARC
  5
5F3
330
1F
100
AcDbEntity
  8
防火材
  6
Continuous
370
    13
100
AcDbCircle
 10
493.8465582585693
 20
436.0245203984673
 30
0.0
 40
1.763236518834533
100
AcDbArc
 50
138.6448852218845
 51
221.3551147795175
  0
ARC
  5
5F4
330
1F
100
AcDbEntity
  8
防火材
  6
Continuous
370
    13
100
AcDbCircle
 10
491.2163094192556
 20
436.024520398442
 30
0.0
 40
1.750643405332458
100
AcDbArc
 50
318.2810781328435
 51
41.71892186715653
  0
LINE
  5
5FB
330
1F
100
AcDbEntity
  8
防火材
  6
Continuous
370
    13
100
AcDbLine
 10
528.0327023871116
 20
441.182578752162
 30
0.0
 11
528.5126862997743
 21
441.182578752162
 31
0.0
  0
LINE
  5
5FC
330
1F
100
AcDbEntity
  8
防火材
  6
Continuous
370
    13
100
AcDbLine
 10
528.0327023871125
 20
437.189533135755
 30
0.0
 11
528.5126862997749
 21
437.1895331357547
 31
0.0
  0
HATCH
  5
5FD
330
1F
100
AcDbEntity
  8
防火材
  6
Continuous
370
    13
100
AcDbHatch
 10
0.0
 20
0.0
 30
0.0
210
0.0
220
0.0
230
1.0
  2
AR-SAND
 70
     0
 71
     1
 91
        4
 92
        7
 72
     0
 73
     1
 93
        4
 10
534.5129275997432
 20
446.8084657484298
 10
528.5126862997731
 20
446.8084657484298
 10
528.5126862997743
 20
441.182578752162
 10
534.5129275997432
 20
441.182578752162
 97
        4
330
600
330
757
330
604
330
6EF
 92
        7
 72
     0
 73
     1
 93
        4
 10
558.5131307997175
 20
446.8084657484298
 10
552.5128471664199
 20
446.8084657484298
 10
552.5128471664199
 20
441.182578752162
 10
558.5131307997175
 20
441.182578752162
 97
        4
330
601
330
759
330
604
330
75A
 92
        7
 72
     0
 73
     1
 93
       18
 10
558.5127074664358
 20
415.6732336397103
 10
557.806960957198
 20
415.6732336397103
 10
557.806960957198
 20
415.8579997850806
 10
556.9805770868592
 20
415.8579997850806
 10
556.9805770868592
 20
415.6732336397101
 10
556.1541932165205
 20
415.6732336397099
 10
556.1541932165205
 20
415.8579997850806
 10
555.3278093461817
 20
415.8579997850806
 10
555.3278093461817
 20
415.6732336397099
 10
554.501425475843
 20
415.6732336397099
 10
554.501425475843
 20
415.8579997850806
 10
553.6750416055042
 20
415.8579997850806
 10
553.6750416055042
 20
415.6732336397099
 10
552.8486577351655
 20
415.6732336397099
 10
552.8486577351655
 20
415.8579997850806
 10
552.5128471664199
 20
415.8579997850806
 10
552.5128471664199
 20
409.6566200555616
 10
558.5127074664359
 20
409.6566200555616
 97
       18
330
6CF
330
6E1
330
6EC
330
6ED
330
6E2
330
6E5
330
6E6
330
6E7
330
6E3
330
6E8
330
6E9
330
6EA
330
6E4
330
6EB
330
755
330
75B
330
5FF
330
75C
 92
        7
 72
     0
 73
     1
 93
       18
 10
534.5129275997448
 20
415.8579997850806
 10
533.8418287173736
 20
415.8579997850806
 10
533.8418287173736
 20
415.6732336397101
 10
533.0154448470347
 20
415.6732336397101
 10
533.0154448470347
 20
415.8579997850806
 10
532.1890609766959
 20
415.8579997850806
 10
532.1890609766959
 20
415.6732336397101
 10
531.3626771063572
 20
415.6732336397099
 10
531.3626771063572
 20
415.8579997850806
 10
530.5362932360183
 20
415.8579997850806
 10
530.5362932360183
 20
415.6732336397099
 10
529.7099093656795
 20
415.6732336397099
 10
529.7099093656795
 20
415.8579997850806
 10
528.8835254953408
 20
415.8579997850806
 10
528.8835254953408
 20
415.6732336397099
 10
528.512686299773
 20
415.6732336397099
 10
528.512686299773
 20
409.6566200555616
 10
534.5129275997448
 20
409.6566200555616
 97
       18
330
720
330
71F
330
712
330
71E
330
71D
330
71C
330
711
330
71B
330
71A
330
719
330
710
330
718
330
717
330
716
330
70F
330
758
330
5FE
330
6EE
 75
     1
 76
     1
 52
0.0
 41
1.0
 77
     0
 78
     4
 53
37.5
 43
-30.67747626998312
 44
-1234.176446934553
 45
-0.0629933581096082
 46
1.926823769013158
 79
     6
 49
0.0
 49
-1.52
 49
0.0
 49
-1.7
 49
0.0
 49
-1.625
 53
7.499999999999999
 43
-30.67747626998312
 44
-1234.176446934553
 45
1.769776705267727
 46
2.82214606522974
 79
     6
 49
0.0
 49
-0.8199999999999999
 49
0.0
 49
-1.37
 49
0.0
 49
-0.525
 53
327.5
 43
-31.90747626998314
 44
-1234.176446934553
 45
3.114141861751495
 46
0.0056590535369649
 79
     6
 49
0.0
 49
-0.5
 49
0.0
 49
-1.8
 49
0.0
 49
-2.35
 53
317.5
 43
-31.90747626998314
 44
-1234.176446934553
 45
3.006126604572293
 46
0.8776755649342494
 79
     6
 49
0.0
 49
-0.25
 49
0.0
 49
-1.179999999999999
 49
0.0
 49
-1.35
 47
0.161875261936918
 98
        4
 10
531.6728278857296
 20
444.507853410872
 10
554.3484022956975
 20
443.8603523922601
 10
555.4821803823126
 20
414.5609300210112
 10
533.2925126777029
 20
413.1040527291343
1001
GradientColor1ACI
1070
     5
1001
GradientColor2ACI
1070
     2
1001
ACAD
1010
0.0
1020
0.0
1030
0.0
  0
LINE
  5
5FE
102
{ACAD_REACTORS
330
5FD
102
}
330
1F
100
AcDbEntity
  8
躯体・通線物他
  6
Continuous
370
    13
100
AcDbLine
 10
528.5126862997745
 20
409.6566200555616
 30
0.0
 11
534.5129275997448
 21
409.6566200555616
 31
0.0
  0
LINE
  5
5FF
102
{ACAD_REACTORS
330
5FD
102
}
330
1F
100
AcDbEntity
  8
躯体・通線物他
  6
Continuous
370
    13
100
AcDbLine
 10
552.5128471664199
 20
409.6566200555616
 30
0.0
 11
558.512707466436
 21
409.6566200555616
 31
0.0
  0
LINE
  5
600
102
{ACAD_REACTORS
330
5FD
102
}
330
1F
100
AcDbEntity
  8
躯体・通線物他
  6
Continuous
370
    13
100
AcDbLine
 10
528.5126862997731
 20
446.8084657484298
 30
0.0
 11
534.5129275997432
 21
446.8084657484298
 31
0.0
  0
LINE
  5
601
102
{ACAD_REACTORS
330
5FD
102
}
330
1F
100
AcDbEntity
  8
躯体・通線物他
  6
Continuous
370
    13
100
AcDbLine
 10
552.5128471664199
 20
446.8084657484298
 30
0.0
 11
558.5131307997175
 21
446.8084657484298
 31
0.0
  0
LINE
  5
604
102
{ACAD_REACTORS
330
5FD
102
}
330
1F
100
AcDbEntity
  8
防火材
  6
Continuous
370
    13
100
AcDbLine
 10
488.5126870575679
 20
441.182578752162
 30
0.0
 11
598.5135533752159
 21
441.182578752162
 31
0.0
  0
LINE
  5
605
330
1F
100
AcDbEntity
  8
防火材
  6
Continuous
370
    13
100
AcDbLine
 10
523.8525389507606
 20
441.182578752162
 30
0.0
 11
528.5126862997742
 21
441.182578752162
 31
0.0
  0
LINE
  5
606
330
1F
100
AcDbEntity
  8
防火材
  6
Continuous
370
    13
100
AcDbLine
 10
488.5126870575668
 20
433.3435908470021
 30
0.0
 11
492.249644866554
 21
433.3435908470021
 31
0.0
  0
LINE
  5
607
330
1F
100
AcDbEntity
  8
防火材
  6
Continuous
370
    13
100
AcDbLine
 10
488.6860475425881
 20
424.4623438237447
 30
0.0
 11
598.3401928901953
 21
424.4623438237442
 31
0.0
  0
LINE
  5
608
330
1F
100
AcDbEntity
  8
防火材
  6
Continuous
370
    13
100
AcDbLine
 10
488.6860475425881
 20
415.6732336397099
 30
0.0
 11
489.2170997190796
 21
415.6732336397099
 31
0.0
  0
LINE
  5
609
330
1F
100
AcDbEntity
  8
防火材
  6
Continuous
370
    13
100
AcDbLine
 10
490.0434835894184
 20
415.6732336397099
 30
0.0
 11
490.8698674597572
 21
415.6732336397101
 31
0.0
  0
LINE
  5
60A
330
1F
100
AcDbEntity
  8
防火材
  6
Continuous
370
    13
100
AcDbLine
 10
491.696251330096
 20
415.6732336397101
 30
0.0
 11
492.5226352004348
 21
415.6732336397099
 31
0.0
  0
LINE
  5
60B
330
1F
100
AcDbEntity
  8
防火材
  6
Continuous
370
    13
100
AcDbLine
 10
493.3490190707736
 20
415.6732336397099
 30
0.0
 11
494.1754029411124
 21
415.6732336397099
 31
0.0
  0
LINE
  5
60C
330
1F
100
AcDbEntity
  8
防火材
  6
Continuous
370
    13
100
AcDbLine
 10
495.0017868114512
 20
415.6732336397099
 30
0.0
 11
495.8281706817899
 21
415.6732336397099
 31
0.0
  0
LINE
  5
60D
330
1F
100
AcDbEntity
  8
防火材
  6
Continuous
370
    13
100
AcDbLine
 10
496.6545545521287
 20
415.6732336397099
 30
0.0
 11
497.4809384224674
 21
415.6732336397099
 31
0.0
  0
LINE
  5
60E
330
1F
100
AcDbEntity
  8
防火材
  6
Continuous
370
    13
100
AcDbLine
 10
498.3073222928062
 20
415.6732336397099
 30
0.0
 11
499.1337061631449
 21
415.6732336397101
 31
0.0
  0
LINE
  5
60F
330
1F
100
AcDbEntity
  8
防火材
  6
Continuous
370
    13
100
AcDbLine
 10
499.9600900334837
 20
415.6732336397101
 30
0.0
 11
500.7864739038224
 21
415.6732336397101
 31
0.0
  0
LINE
  5
610
330
1F
100
AcDbEntity
  8
防火材
  6
Continuous
370
    13
100
AcDbLine
 10
501.6128577741612
 20
415.6732336397101
 30
0.0
 11
502.4392416445
 21
415.6732336397101
 31
0.0
  0
LINE
  5
611
330
1F
100
AcDbEntity
  8
防火材
  6
Continuous
370
    13
100
AcDbLine
 10
503.2656255148387
 20
415.6732336397101
 30
0.0
 11
504.0920093851776
 21
415.6732336397103
 31
0.0
  0
LINE
  5
612
330
1F
100
AcDbEntity
  8
防火材
  6
Continuous
370
    13
100
AcDbLine
 10
504.9183932555164
 20
415.6732336397103
 30
0.0
 11
505.7447771258552
 21
415.6732336397103
 31
0.0
  0
LINE
  5
613
330
1F
100
AcDbEntity
  8
防火材
  6
Continuous
370
    13
100
AcDbLine
 10
506.5711609961939
 20
415.6732336397103
 30
0.0
 11
507.3975448665328
 21
415.6732336397101
 31
0.0
  0
LINE
  5
614
330
1F
100
AcDbEntity
  8
防火材
  6
Continuous
370
    13
100
AcDbLine
 10
508.2239287368715
 20
415.6732336397101
 30
0.0
 11
509.0503126072103
 21
415.6732336397099
 31
0.0
  0
LINE
  5
615
330
1F
100
AcDbEntity
  8
防火材
  6
Continuous
370
    13
100
AcDbLine
 10
509.876696477549
 20
415.6732336397099
 30
0.0
 11
510.7030803478878
 21
415.6732336397099
 31
0.0
  0
LINE
  5
616
330
1F
100
AcDbEntity
  8
防火材
  6
Continuous
370
    13
100
AcDbLine
 10
511.5294642182266
 20
415.6732336397099
 30
0.0
 11
512.3558480885654
 21
415.6732336397096
 31
0.0
  0
LINE
  5
617
330
1F
100
AcDbEntity
  8
防火材
  6
Continuous
370
    13
100
AcDbLine
 10
513.1822319589041
 20
415.6732336397096
 30
0.0
 11
514.0086158292429
 21
415.6732336397096
 31
0.0
  0
LINE
  5
618
330
1F
100
AcDbEntity
  8
防火材
  6
Continuous
370
    13
100
AcDbLine
 10
514.8349996995817
 20
415.6732336397096
 30
0.0
 11
515.6613835699204
 21
415.6732336397096
 31
0.0
  0
LINE
  5
619
330
1F
100
AcDbEntity
  8
防火材
  6
Continuous
370
    13
100
AcDbLine
 10
516.4877674402592
 20
415.6732336397096
 30
0.0
 11
517.3141513105981
 21
415.6732336397099
 31
0.0
  0
LINE
  5
61A
330
1F
100
AcDbEntity
  8
防火材
  6
Continuous
370
    13
100
AcDbLine
 10
518.1405351809368
 20
415.6732336397103
 30
0.0
 11
518.9669190512756
 21
415.6732336397101
 31
0.0
  0
LINE
  5
61B
330
1F
100
AcDbEntity
  8
防火材
  6
Continuous
370
    13
100
AcDbLine
 10
489.1856857310199
 20
437.1895331357511
 30
0.0
 11
594.5032184764433
 21
437.1895331357515
 31
0.0
  0
LINE
  5
61C
330
1F
100
AcDbEntity
  8
防火材
  6
Continuous
370
    13
100
AcDbLine
 10
523.8525389507606
 20
437.1895331357514
 30
0.0
 11
528.5126862997749
 21
437.1895331357511
 31
0.0
  0
LINE
  5
61D
330
1F
100
AcDbEntity
  8
防火材
  6
Continuous
370
    13
100
AcDbLine
 10
492.5230332690582
 20
432.9783050420457
 30
0.0
 11
594.5032071637249
 21
432.9783050420449
 31
0.0
  0
LINE
  5
61E
330
1F
100
AcDbEntity
  8
防火材
  6
Continuous
370
    13
100
AcDbLine
 10
523.8525389507606
 20
432.9783050420456
 30
0.0
 11
528.5126862997754
 21
432.9783050420453
 31
0.0
  0
ARC
  5
61F
330
1F
100
AcDbEntity
  8
防火材
  6
Continuous
370
    13
100
AcDbCircle
 10
491.0378592170132
 20
426.7778535039542
 30
0.0
 40
3.300394405386364
100
AcDbArc
 50
139.9169784962551
 51
224.5543677074855
  0
ARC
  5
620
330
1F
100
AcDbEntity
  8
防火材
  6
Continuous
370
    13
100
AcDbCircle
 10
490.0186482611898
 20
431.1232790912042
 30
0.0
 40
2.682853600133893
100
AcDbArc
 50
124.1476968664315
 51
235.8523031345043
  0
ARC
  5
621
330
1F
100
AcDbEntity
  8
防火材
  6
Continuous
370
    13
100
AcDbCircle
 10
486.7203490828647
 20
431.1232790911799
 30
0.0
 40
2.853464509796493
100
AcDbArc
 50
308.9120674941766
 51
51.08793250581989
  0
ARC
  5
622
330
1F
100
AcDbEntity
  8
防火材
  6
Continuous
370
    13
100
AcDbCircle
 10
491.007367099267
 20
417.9704278036212
 30
0.0
 40
3.265826926052336
100
AcDbArc
 50
139.8069154254881
 51
224.7007109438123
  0
ARC
  5
623
330
1F
100
AcDbEntity
  8
防火材
  6
Continuous
370
    13
100
AcDbCircle
 10
490.3855854220485
 20
422.4928892819266
 30
0.0
 40
3.055986427567979
100
AcDbArc
 50
130.7646364132722
 51
232.203257122641
  0
ARC
  5
624
330
1F
100
AcDbEntity
  8
防火材
  6
Continuous
370
    13
100
AcDbCircle
 10
486.313380130202
 20
422.4928892818995
 30
0.0
 40
3.266229588191671
100
AcDbArc
 50
312.3259409534115
 51
37.08325941527162
  0
LINE
  5
625
330
1F
100
AcDbEntity
  8
防火材
  6
Continuous
370
    13
100
AcDbLine
 10
492.5226352004349
 20
424.4623438237447
 30
0.0
 11
492.5226352004348
 21
415.6732336397099
 31
0.0
  0
LINE
  5
626
330
1F
100
AcDbEntity
  8
防火材
  6
Continuous
370
    13
100
AcDbLine
 10
492.5226352004348
 20
415.8579997850806
 30
0.0
 11
493.3490190707736
 21
415.8579997850806
 31
0.0
  0
LINE
  5
627
330
1F
100
AcDbEntity
  8
防火材
  6
Continuous
370
    13
100
AcDbLine
 10
493.3490190707736
 20
415.6732336397099
 30
0.0
 11
493.3490190707736
 21
424.4623438237447
 31
0.0
  0
LINE
  5
628
330
1F
100
AcDbEntity
  8
防火材
  6
Continuous
370
    13
100
AcDbLine
 10
494.1754029411124
 20
415.6732336397099
 30
0.0
 11
494.1754029411124
 21
424.4623438237447
 31
0.0
  0
LINE
  5
629
330
1F
100
AcDbEntity
  8
防火材
  6
Continuous
370
    13
100
AcDbLine
 10
494.1754029411124
 20
415.8579997850806
 30
0.0
 11
495.0017868114512
 21
415.8579997850806
 31
0.0
  0
LINE
  5
62A
330
1F
100
AcDbEntity
  8
防火材
  6
Continuous
370
    13
100
AcDbLine
 10
495.0017868114512
 20
415.6732336397099
 30
0.0
 11
495.0017868114512
 21
424.4623438237447
 31
0.0
  0
LINE
  5
62B
330
1F
100
AcDbEntity
  8
防火材
  6
Continuous
370
    13
100
AcDbLine
 10
495.8281706817899
 20
415.6732336397099
 30
0.0
 11
495.8281706817899
 21
424.4623438237447
 31
0.0
  0
LINE
  5
62C
330
1F
100
AcDbEntity
  8
防火材
  6
Continuous
370
    13
100
AcDbLine
 10
495.8281706817899
 20
415.8579997850806
 30
0.0
 11
496.6545545521287
 21
415.8579997850806
 31
0.0
  0
LINE
  5
62D
330
1F
100
AcDbEntity
  8
防火材
  6
Continuous
370
    13
100
AcDbLine
 10
496.6545545521287
 20
415.6732336397099
 30
0.0
 11
496.6545545521287
 21
424.4623438237447
 31
0.0
  0
LINE
  5
62E
330
1F
100
AcDbEntity
  8
防火材
  6
Continuous
370
    13
100
AcDbLine
 10
497.4809384224674
 20
415.6732336397099
 30
0.0
 11
497.4809384224674
 21
424.4623438237447
 31
0.0
  0
LINE
  5
62F
330
1F
100
AcDbEntity
  8
防火材
  6
Continuous
370
    13
100
AcDbLine
 10
497.4809384224674
 20
415.8579997850806
 30
0.0
 11
498.3073222928062
 21
415.8579997850806
 31
0.0
  0
LINE
  5
630
330
1F
100
AcDbEntity
  8
防火材
  6
Continuous
370
    13
100
AcDbLine
 10
498.3073222928062
 20
415.6732336397099
 30
0.0
 11
498.3073222928062
 21
424.4623438237447
 31
0.0
  0
LINE
  5
631
330
1F
100
AcDbEntity
  8
防火材
  6
Continuous
370
    13
100
AcDbLine
 10
499.1337061631449
 20
415.6732336397099
 30
0.0
 11
499.1337061631449
 21
424.4623438237447
 31
0.0
  0
LINE
  5
632
330
1F
100
AcDbEntity
  8
防火材
  6
Continuous
370
    13
100
AcDbLine
 10
499.1337061631449
 20
415.8579997850806
 30
0.0
 11
499.9600900334837
 21
415.8579997850806
 31
0.0
  0
LINE
  5
633
330
1F
100
AcDbEntity
  8
防火材
  6
Continuous
370
    13
100
AcDbLine
 10
499.9600900334837
 20
415.6732336397099
 30
0.0
 11
499.9600900334837
 21
424.4623438237447
 31
0.0
  0
LINE
  5
634
330
1F
100
AcDbEntity
  8
防火材
  6
Continuous
370
    13
100
AcDbLine
 10
500.7864739038224
 20
415.6732336397099
 30
0.0
 11
500.7864739038224
 21
424.4623438237447
 31
0.0
  0
LINE
  5
635
330
1F
100
AcDbEntity
  8
防火材
  6
Continuous
370
    13
100
AcDbLine
 10
500.7864739038224
 20
415.8579997850806
 30
0.0
 11
501.6128577741612
 21
415.8579997850806
 31
0.0
  0
LINE
  5
636
330
1F
100
AcDbEntity
  8
防火材
  6
Continuous
370
    13
100
AcDbLine
 10
501.6128577741612
 20
415.6732336397099
 30
0.0
 11
501.6128577741612
 21
424.4623438237447
 31
0.0
  0
LINE
  5
637
330
1F
100
AcDbEntity
  8
防火材
  6
Continuous
370
    13
100
AcDbLine
 10
502.4392416445
 20
415.6732336397099
 30
0.0
 11
502.4392416445
 21
424.4623438237447
 31
0.0
  0
LINE
  5
638
330
1F
100
AcDbEntity
  8
防火材
  6
Continuous
370
    13
100
AcDbLine
 10
502.4392416445
 20
415.8579997850806
 30
0.0
 11
503.2656255148387
 21
415.8579997850806
 31
0.0
  0
LINE
  5
639
330
1F
100
AcDbEntity
  8
防火材
  6
Continuous
370
    13
100
AcDbLine
 10
503.2656255148387
 20
415.6732336397099
 30
0.0
 11
503.2656255148387
 21
424.4623438237447
 31
0.0
  0
LINE
  5
63A
330
1F
100
AcDbEntity
  8
防火材
  6
Continuous
370
    13
100
AcDbLine
 10
504.0920093851776
 20
415.6732336397099
 30
0.0
 11
504.0920093851776
 21
424.4623438237447
 31
0.0
  0
LINE
  5
63B
330
1F
100
AcDbEntity
  8
防火材
  6
Continuous
370
    13
100
AcDbLine
 10
504.0920093851776
 20
415.8579997850806
 30
0.0
 11
504.9183932555164
 21
415.8579997850806
 31
0.0
  0
LINE
  5
63C
330
1F
100
AcDbEntity
  8
防火材
  6
Continuous
370
    13
100
AcDbLine
 10
504.9183932555164
 20
415.6732336397099
 30
0.0
 11
504.9183932555164
 21
424.4623438237447
 31
0.0
  0
LINE
  5
63D
330
1F
100
AcDbEntity
  8
防火材
  6
Continuous
370
    13
100
AcDbLine
 10
505.7447771258551
 20
415.6732336397099
 30
0.0
 11
505.7447771258551
 21
424.4623438237447
 31
0.0
  0
LINE
  5
63E
330
1F
100
AcDbEntity
  8
防火材
  6
Continuous
370
    13
100
AcDbLine
 10
490.8698674597572
 20
424.4623438237447
 30
0.0
 11
490.8698674597572
 21
415.6732336397099
 31
0.0
  0
LINE
  5
63F
330
1F
100
AcDbEntity
  8
防火材
  6
Continuous
370
    13
100
AcDbLine
 10
490.8698674597572
 20
415.8579997850806
 30
0.0
 11
491.696251330096
 21
415.8579997850806
 31
0.0
  0
LINE
  5
640
330
1F
100
AcDbEntity
  8
防火材
  6
Continuous
370
    13
100
AcDbLine
 10
491.696251330096
 20
415.6732336397099
 30
0.0
 11
491.696251330096
 21
424.4623438237447
 31
0.0
  0
LINE
  5
641
330
1F
100
AcDbEntity
  8
防火材
  6
Continuous
370
    13
100
AcDbLine
 10
489.2170997190796
 20
424.4623438237447
 30
0.0
 11
489.2170997190796
 21
423.988438770197
 31
0.0
  0
LINE
  5
642
330
1F
100
AcDbEntity
  8
防火材
  6
Continuous
370
    13
100
AcDbLine
 10
489.2170997190796
 20
420.9973397936021
 30
0.0
 11
489.2170997190796
 21
415.6732336397099
 31
0.0
  0
LINE
  5
643
330
1F
100
AcDbEntity
  8
防火材
  6
Continuous
370
    13
100
AcDbLine
 10
489.2170997190796
 20
415.8579997850806
 30
0.0
 11
490.0434835894184
 21
415.8579997850806
 31
0.0
  0
LINE
  5
644
330
1F
100
AcDbEntity
  8
防火材
  6
Continuous
370
    13
100
AcDbLine
 10
490.0434835894184
 20
415.6732336397099
 30
0.0
 11
490.0434835894184
 21
424.4623438237447
 31
0.0
  0
LINE
  5
645
330
1F
100
AcDbEntity
  8
防火材
  6
Continuous
370
    13
100
AcDbLine
 10
488.3907158487409
 20
416.0162625741565
 30
0.0
 11
488.3907158487409
 21
419.9245930330859
 31
0.0
  0
LINE
  5
646
330
1F
100
AcDbEntity
  8
防火材
  6
Continuous
370
    13
100
AcDbLine
 10
506.5711609961939
 20
415.6732336397101
 30
0.0
 11
507.3975448665328
 21
415.6732336397099
 31
0.0
  0
LINE
  5
647
330
1F
100
AcDbEntity
  8
防火材
  6
Continuous
370
    13
100
AcDbLine
 10
508.2239287368715
 20
415.6732336397099
 30
0.0
 11
509.0503126072103
 21
415.6732336397099
 31
0.0
  0
LINE
  5
648
330
1F
100
AcDbEntity
  8
防火材
  6
Continuous
370
    13
100
AcDbLine
 10
509.876696477549
 20
415.6732336397099
 30
0.0
 11
510.7030803478878
 21
415.6732336397099
 31
0.0
  0
LINE
  5
649
330
1F
100
AcDbEntity
  8
防火材
  6
Continuous
370
    13
100
AcDbLine
 10
511.5294642182266
 20
415.6732336397099
 30
0.0
 11
512.3558480885654
 21
415.6732336397099
 31
0.0
  0
LINE
  5
64A
330
1F
100
AcDbEntity
  8
防火材
  6
Continuous
370
    13
100
AcDbLine
 10
513.1822319589041
 20
415.6732336397099
 30
0.0
 11
514.0086158292429
 21
415.6732336397101
 31
0.0
  0
LINE
  5
64B
330
1F
100
AcDbEntity
  8
防火材
  6
Continuous
370
    13
100
AcDbLine
 10
514.8349996995817
 20
415.6732336397101
 30
0.0
 11
515.6613835699204
 21
415.6732336397101
 31
0.0
  0
LINE
  5
64C
330
1F
100
AcDbEntity
  8
防火材
  6
Continuous
370
    13
100
AcDbLine
 10
516.4877674402592
 20
415.6732336397101
 30
0.0
 11
517.3141513105979
 21
415.6732336397101
 31
0.0
  0
LINE
  5
64D
330
1F
100
AcDbEntity
  8
防火材
  6
Continuous
370
    13
100
AcDbLine
 10
518.1405351809368
 20
415.6732336397101
 30
0.0
 11
518.9669190512756
 21
415.6732336397103
 31
0.0
  0
LINE
  5
64E
330
1F
100
AcDbEntity
  8
防火材
  6
Continuous
370
    13
100
AcDbLine
 10
507.3975448665328
 20
424.4623438237447
 30
0.0
 11
507.3975448665328
 21
415.6732336397099
 31
0.0
  0
LINE
  5
64F
330
1F
100
AcDbEntity
  8
防火材
  6
Continuous
370
    13
100
AcDbLine
 10
507.3975448665328
 20
415.8579997850806
 30
0.0
 11
508.2239287368715
 21
415.8579997850806
 31
0.0
  0
LINE
  5
650
330
1F
100
AcDbEntity
  8
防火材
  6
Continuous
370
    13
100
AcDbLine
 10
508.2239287368715
 20
415.6732336397099
 30
0.0
 11
508.2239287368715
 21
424.4623438237447
 31
0.0
  0
LINE
  5
651
330
1F
100
AcDbEntity
  8
防火材
  6
Continuous
370
    13
100
AcDbLine
 10
509.0503126072103
 20
415.6732336397099
 30
0.0
 11
509.0503126072103
 21
424.4623438237447
 31
0.0
  0
LINE
  5
652
330
1F
100
AcDbEntity
  8
防火材
  6
Continuous
370
    13
100
AcDbLine
 10
509.0503126072103
 20
415.8579997850806
 30
0.0
 11
509.876696477549
 21
415.8579997850806
 31
0.0
  0
LINE
  5
653
330
1F
100
AcDbEntity
  8
防火材
  6
Continuous
370
    13
100
AcDbLine
 10
509.876696477549
 20
415.6732336397099
 30
0.0
 11
509.876696477549
 21
424.4623438237447
 31
0.0
  0
LINE
  5
654
330
1F
100
AcDbEntity
  8
防火材
  6
Continuous
370
    13
100
AcDbLine
 10
510.7030803478878
 20
415.6732336397099
 30
0.0
 11
510.7030803478878
 21
424.4623438237447
 31
0.0
  0
LINE
  5
655
330
1F
100
AcDbEntity
  8
防火材
  6
Continuous
370
    13
100
AcDbLine
 10
510.7030803478878
 20
415.8579997850806
 30
0.0
 11
511.5294642182266
 21
415.8579997850806
 31
0.0
  0
LINE
  5
656
330
1F
100
AcDbEntity
  8
防火材
  6
Continuous
370
    13
100
AcDbLine
 10
511.5294642182266
 20
415.6732336397099
 30
0.0
 11
511.5294642182266
 21
424.4623438237447
 31
0.0
  0
LINE
  5
657
330
1F
100
AcDbEntity
  8
防火材
  6
Continuous
370
    13
100
AcDbLine
 10
512.3558480885654
 20
415.6732336397099
 30
0.0
 11
512.3558480885654
 21
424.4623438237447
 31
0.0
  0
LINE
  5
658
330
1F
100
AcDbEntity
  8
防火材
  6
Continuous
370
    13
100
AcDbLine
 10
512.3558480885654
 20
415.8579997850806
 30
0.0
 11
513.1822319589041
 21
415.8579997850806
 31
0.0
  0
LINE
  5
659
330
1F
100
AcDbEntity
  8
防火材
  6
Continuous
370
    13
100
AcDbLine
 10
513.1822319589041
 20
415.6732336397099
 30
0.0
 11
513.1822319589041
 21
424.4623438237447
 31
0.0
  0
LINE
  5
65A
330
1F
100
AcDbEntity
  8
防火材
  6
Continuous
370
    13
100
AcDbLine
 10
514.0086158292429
 20
415.6732336397099
 30
0.0
 11
514.0086158292429
 21
424.4623438237447
 31
0.0
  0
LINE
  5
65B
330
1F
100
AcDbEntity
  8
防火材
  6
Continuous
370
    13
100
AcDbLine
 10
514.0086158292429
 20
415.8579997850806
 30
0.0
 11
514.8349996995817
 21
415.8579997850806
 31
0.0
  0
LINE
  5
65C
330
1F
100
AcDbEntity
  8
防火材
  6
Continuous
370
    13
100
AcDbLine
 10
514.8349996995817
 20
415.6732336397099
 30
0.0
 11
514.8349996995817
 21
424.4623438237447
 31
0.0
  0
LINE
  5
65D
330
1F
100
AcDbEntity
  8
防火材
  6
Continuous
370
    13
100
AcDbLine
 10
515.6613835699204
 20
415.6732336397099
 30
0.0
 11
515.6613835699204
 21
424.4623438237447
 31
0.0
  0
LINE
  5
65E
330
1F
100
AcDbEntity
  8
防火材
  6
Continuous
370
    13
100
AcDbLine
 10
515.6613835699204
 20
415.8579997850806
 30
0.0
 11
516.4877674402592
 21
415.8579997850806
 31
0.0
  0
LINE
  5
65F
330
1F
100
AcDbEntity
  8
防火材
  6
Continuous
370
    13
100
AcDbLine
 10
516.4877674402592
 20
415.6732336397099
 30
0.0
 11
516.4877674402592
 21
424.4623438237447
 31
0.0
  0
LINE
  5
660
330
1F
100
AcDbEntity
  8
防火材
  6
Continuous
370
    13
100
AcDbLine
 10
517.3141513105979
 20
415.6732336397099
 30
0.0
 11
517.3141513105979
 21
424.4623438237447
 31
0.0
  0
LINE
  5
661
330
1F
100
AcDbEntity
  8
防火材
  6
Continuous
370
    13
100
AcDbLine
 10
517.3141513105979
 20
415.8579997850806
 30
0.0
 11
518.1405351809368
 21
415.8579997850806
 31
0.0
  0
LINE
  5
662
330
1F
100
AcDbEntity
  8
防火材
  6
Continuous
370
    13
100
AcDbLine
 10
518.1405351809368
 20
415.6732336397099
 30
0.0
 11
518.1405351809368
 21
424.4623438237447
 31
0.0
  0
LINE
  5
663
330
1F
100
AcDbEntity
  8
防火材
  6
Continuous
370
    13
100
AcDbLine
 10
518.9669190512756
 20
415.6732336397099
 30
0.0
 11
518.9669190512756
 21
424.4623438237447
 31
0.0
  0
LINE
  5
664
330
1F
100
AcDbEntity
  8
防火材
  6
Continuous
370
    13
100
AcDbLine
 10
505.7447771258551
 20
415.8579997850806
 30
0.0
 11
506.5711609961939
 21
415.8579997850806
 31
0.0
  0
LINE
  5
665
330
1F
100
AcDbEntity
  8
防火材
  6
Continuous
370
    13
100
AcDbLine
 10
506.5711609961939
 20
415.6732336397099
 30
0.0
 11
506.5711609961939
 21
424.4623438237447
 31
0.0
  0
ARC
  5
666
330
1F
100
AcDbEntity
  8
防火材
  6
Continuous
370
    13
100
AcDbCircle
 10
595.8334040243523
 20
433.8565043771514
 30
0.0
 40
3.625835852024524
100
AcDbArc
 50
339.9346707277081
 51
42.33829509183709
  0
ARC
  5
667
330
1F
100
AcDbEntity
  8
防火材
  6
Continuous
370
    13
100
AcDbCircle
 10
596.5439272119399
 20
438.7405539605096
 30
0.0
 40
3.13734159856804
100
AcDbArc
 50
308.8880693050364
 51
51.11193069411466
  0
ARC
  5
668
330
1F
100
AcDbEntity
  8
防火材
  6
Continuous
370
    13
100
AcDbCircle
 10
600.8203129518147
 20
438.7405539604833
 30
0.0
 40
3.359259565365157
100
AcDbArc
 50
133.3684180334336
 51
226.6315819665813
  0
ARC
  5
669
330
1F
100
AcDbEntity
  8
防火材
  6
Continuous
370
    13
100
AcDbCircle
 10
593.627154047522
 20
433.918911619824
 30
0.0
 40
1.285383132210041
100
AcDbArc
 50
312.9648993350437
 51
47.03441156328968
  0
ARC
  5
66A
330
1F
100
AcDbEntity
  8
防火材
  6
Continuous
370
    13
100
AcDbCircle
 10
593.1796821742148
 20
436.0245203984673
 30
0.0
 40
1.763236518834533
100
AcDbArc
 50
318.6448852204825
 51
41.35511477811551
  0
ARC
  5
66B
330
1F
100
AcDbEntity
  8
防火材
  6
Continuous
370
    13
100
AcDbCircle
 10
595.8099310135285
 20
436.024520398442
 30
0.0
 40
1.750643405332458
100
AcDbArc
 50
138.2810781328434
 51
221.7189218671565
  0
LINE
  5
66C
330
1F
100
AcDbEntity
  8
防火材
  6
Continuous
370
    13
100
AcDbLine
 10
598.5135533752172
 20
433.3435908470021
 30
0.0
 11
594.77659556623
 21
433.3435908470021
 31
0.0
  0
LINE
  5
66D
330
1F
100
AcDbEntity
  8
防火材
  6
Continuous
370
    13
100
AcDbLine
 10
598.3401928901957
 20
415.6732336397099
 30
0.0
 11
597.4733867334592
 21
415.6732336397099
 31
0.0
  0
LINE
  5
66E
330
1F
100
AcDbEntity
  8
防火材
  6
Continuous
370
    13
100
AcDbLine
 10
596.6470028631204
 20
415.6732336397099
 30
0.0
 11
595.8206189927816
 21
415.6732336397101
 31
0.0
  0
LINE
  5
66F
330
1F
100
AcDbEntity
  8
防火材
  6
Continuous
370
    13
100
AcDbLine
 10
594.9942351224429
 20
415.6732336397101
 30
0.0
 11
594.1678512521041
 21
415.6732336397099
 31
0.0
  0
LINE
  5
670
330
1F
100
AcDbEntity
  8
防火材
  6
Continuous
370
    13
100
AcDbLine
 10
593.3414673817654
 20
415.6732336397099
 30
0.0
 11
592.5150835114266
 21
415.6732336397099
 31
0.0
  0
LINE
  5
671
330
1F
100
AcDbEntity
  8
防火材
  6
Continuous
370
    13
100
AcDbLine
 10
591.6886996410877
 20
415.6732336397099
 30
0.0
 11
590.8623157707488
 21
415.6732336397099
 31
0.0
  0
LINE
  5
672
330
1F
100
AcDbEntity
  8
防火材
  6
Continuous
370
    13
100
AcDbLine
 10
590.0359319004101
 20
415.6732336397099
 30
0.0
 11
589.2095480300713
 21
415.6732336397099
 31
0.0
  0
LINE
  5
673
330
1F
100
AcDbEntity
  8
防火材
  6
Continuous
370
    13
100
AcDbLine
 10
588.3831641597326
 20
415.6732336397099
 30
0.0
 11
587.5567802893938
 21
415.6732336397101
 31
0.0
  0
LINE
  5
674
330
1F
100
AcDbEntity
  8
防火材
  6
Continuous
370
    13
100
AcDbLine
 10
586.7303964190551
 20
415.6732336397101
 30
0.0
 11
585.9040125487163
 21
415.6732336397101
 31
0.0
  0
LINE
  5
675
330
1F
100
AcDbEntity
  8
防火材
  6
Continuous
370
    13
100
AcDbLine
 10
585.0776286783776
 20
415.6732336397101
 30
0.0
 11
584.2512448080388
 21
415.6732336397101
 31
0.0
  0
LINE
  5
676
330
1F
100
AcDbEntity
  8
防火材
  6
Continuous
370
    13
100
AcDbLine
 10
583.4248609377
 20
415.6732336397101
 30
0.0
 11
582.5984770673612
 21
415.6732336397103
 31
0.0
  0
LINE
  5
677
330
1F
100
AcDbEntity
  8
防火材
  6
Continuous
370
    13
100
AcDbLine
 10
581.7720931970224
 20
415.6732336397103
 30
0.0
 11
580.9457093266837
 21
415.6732336397103
 31
0.0
  0
LINE
  5
678
330
1F
100
AcDbEntity
  8
防火材
  6
Continuous
370
    13
100
AcDbLine
 10
580.1193254563449
 20
415.6732336397103
 30
0.0
 11
579.2929415860061
 21
415.6732336397101
 31
0.0
  0
LINE
  5
679
330
1F
100
AcDbEntity
  8
防火材
  6
Continuous
370
    13
100
AcDbLine
 10
578.4665577156673
 20
415.6732336397101
 30
0.0
 11
577.6401738453285
 21
415.6732336397099
 31
0.0
  0
LINE
  5
67A
330
1F
100
AcDbEntity
  8
防火材
  6
Continuous
370
    13
100
AcDbLine
 10
576.8137899749897
 20
415.6732336397099
 30
0.0
 11
575.987406104651
 21
415.6732336397099
 31
0.0
  0
LINE
  5
67B
330
1F
100
AcDbEntity
  8
防火材
  6
Continuous
370
    13
100
AcDbLine
 10
575.1610222343122
 20
415.6732336397099
 30
0.0
 11
574.3346383639734
 21
415.6732336397096
 31
0.0
  0
LINE
  5
67C
330
1F
100
AcDbEntity
  8
防火材
  6
Continuous
370
    13
100
AcDbLine
 10
573.5082544936346
 20
415.6732336397096
 30
0.0
 11
572.6818706232959
 21
415.6732336397096
 31
0.0
  0
LINE
  5
67D
330
1F
100
AcDbEntity
  8
防火材
  6
Continuous
370
    13
100
AcDbLine
 10
571.8554867529571
 20
415.6732336397096
 30
0.0
 11
571.0291028826183
 21
415.6732336397096
 31
0.0
  0
LINE
  5
67E
330
1F
100
AcDbEntity
  8
防火材
  6
Continuous
370
    13
100
AcDbLine
 10
570.2027190122796
 20
415.6732336397096
 30
0.0
 11
569.3763351419408
 21
415.6732336397099
 31
0.0
  0
LINE
  5
67F
330
1F
100
AcDbEntity
  8
防火材
  6
Continuous
370
    13
100
AcDbLine
 10
568.5499512716021
 20
415.6732336397103
 30
0.0
 11
567.6488120373669
 21
415.6732336397099
 31
0.0
  0
ARC
  5
680
330
1F
100
AcDbEntity
  8
防火材
  6
Continuous
370
    13
100
AcDbCircle
 10
595.9883812157709
 20
426.7778535039542
 30
0.0
 40
3.300394405386364
100
AcDbArc
 50
315.4456322925146
 51
40.08302150374485
  0
ARC
  5
681
330
1F
100
AcDbEntity
  8
防火材
  6
Continuous
370
    13
100
AcDbCircle
 10
597.0075921715943
 20
431.1232790912042
 30
0.0
 40
2.682853600133893
100
AcDbArc
 50
304.1476968654795
 51
55.85230313356844
  0
ARC
  5
682
330
1F
100
AcDbEntity
  8
防火材
  6
Continuous
370
    13
100
AcDbCircle
 10
600.3058913499192
 20
431.1232790911799
 30
0.0
 40
2.853464509796493
100
AcDbArc
 50
128.9120674941801
 51
231.0879325058234
  0
ARC
  5
683
330
1F
100
AcDbEntity
  8
防火材
  6
Continuous
370
    13
100
AcDbCircle
 10
596.0188733335169
 20
417.9704278036212
 30
0.0
 40
3.265826926052336
100
AcDbArc
 50
315.2992890561876
 51
40.1930845745119
  0
ARC
  5
684
330
1F
100
AcDbEntity
  8
防火材
  6
Continuous
370
    13
100
AcDbCircle
 10
596.6406550107356
 20
422.4928892819266
 30
0.0
 40
3.055986427567979
100
AcDbArc
 50
307.796742877359
 51
49.2353635867278
  0
ARC
  5
685
330
1F
100
AcDbEntity
  8
防火材
  6
Continuous
370
    13
100
AcDbCircle
 10
600.7128603025819
 20
422.4928892818995
 30
0.0
 40
3.266229588191671
100
AcDbArc
 50
142.9167405847284
 51
227.6740590465884
  0
LINE
  5
686
330
1F
100
AcDbEntity
  8
防火材
  6
Continuous
370
    13
100
AcDbLine
 10
594.1678512521041
 20
424.4623438237447
 30
0.0
 11
594.1678512521041
 21
415.6732336397099
 31
0.0
  0
LINE
  5
687
330
1F
100
AcDbEntity
  8
防火材
  6
Continuous
370
    13
100
AcDbLine
 10
594.1678512521041
 20
415.8579997850806
 30
0.0
 11
593.3414673817654
 21
415.8579997850806
 31
0.0
  0
LINE
  5
688
330
1F
100
AcDbEntity
  8
防火材
  6
Continuous
370
    13
100
AcDbLine
 10
593.3414673817654
 20
415.6732336397099
 30
0.0
 11
593.3414673817654
 21
424.4623438237447
 31
0.0
  0
LINE
  5
689
330
1F
100
AcDbEntity
  8
防火材
  6
Continuous
370
    13
100
AcDbLine
 10
592.5150835114266
 20
415.6732336397099
 30
0.0
 11
592.5150835114266
 21
424.4623438237447
 31
0.0
  0
LINE
  5
68A
330
1F
100
AcDbEntity
  8
防火材
  6
Continuous
370
    13
100
AcDbLine
 10
592.5150835114266
 20
415.8579997850806
 30
0.0
 11
591.6886996410877
 21
415.8579997850806
 31
0.0
  0
LINE
  5
68B
330
1F
100
AcDbEntity
  8
防火材
  6
Continuous
370
    13
100
AcDbLine
 10
591.6886996410877
 20
415.6732336397099
 30
0.0
 11
591.6886996410877
 21
424.4623438237447
 31
0.0
  0
LINE
  5
68C
330
1F
100
AcDbEntity
  8
防火材
  6
Continuous
370
    13
100
AcDbLine
 10
590.8623157707488
 20
415.6732336397099
 30
0.0
 11
590.8623157707488
 21
424.4623438237447
 31
0.0
  0
LINE
  5
68D
330
1F
100
AcDbEntity
  8
防火材
  6
Continuous
370
    13
100
AcDbLine
 10
590.8623157707488
 20
415.8579997850806
 30
0.0
 11
590.0359319004101
 21
415.8579997850806
 31
0.0
  0
LINE
  5
68E
330
1F
100
AcDbEntity
  8
防火材
  6
Continuous
370
    13
100
AcDbLine
 10
590.0359319004101
 20
415.6732336397099
 30
0.0
 11
590.0359319004101
 21
424.4623438237447
 31
0.0
  0
LINE
  5
68F
330
1F
100
AcDbEntity
  8
防火材
  6
Continuous
370
    13
100
AcDbLine
 10
589.2095480300713
 20
415.6732336397099
 30
0.0
 11
589.2095480300713
 21
424.4623438237447
 31
0.0
  0
LINE
  5
690
330
1F
100
AcDbEntity
  8
防火材
  6
Continuous
370
    13
100
AcDbLine
 10
589.2095480300713
 20
415.8579997850806
 30
0.0
 11
588.3831641597326
 21
415.8579997850806
 31
0.0
  0
LINE
  5
691
330
1F
100
AcDbEntity
  8
防火材
  6
Continuous
370
    13
100
AcDbLine
 10
588.3831641597326
 20
415.6732336397099
 30
0.0
 11
588.3831641597326
 21
424.4623438237447
 31
0.0
  0
LINE
  5
692
330
1F
100
AcDbEntity
  8
防火材
  6
Continuous
370
    13
100
AcDbLine
 10
587.5567802893938
 20
415.6732336397099
 30
0.0
 11
587.5567802893938
 21
424.4623438237447
 31
0.0
  0
LINE
  5
693
330
1F
100
AcDbEntity
  8
防火材
  6
Continuous
370
    13
100
AcDbLine
 10
587.5567802893938
 20
415.8579997850806
 30
0.0
 11
586.7303964190551
 21
415.8579997850806
 31
0.0
  0
LINE
  5
694
330
1F
100
AcDbEntity
  8
防火材
  6
Continuous
370
    13
100
AcDbLine
 10
586.7303964190551
 20
415.6732336397099
 30
0.0
 11
586.7303964190551
 21
424.4623438237447
 31
0.0
  0
LINE
  5
695
330
1F
100
AcDbEntity
  8
防火材
  6
Continuous
370
    13
100
AcDbLine
 10
585.9040125487163
 20
415.6732336397099
 30
0.0
 11
585.9040125487163
 21
424.4623438237447
 31
0.0
  0
LINE
  5
696
330
1F
100
AcDbEntity
  8
防火材
  6
Continuous
370
    13
100
AcDbLine
 10
585.9040125487163
 20
415.8579997850806
 30
0.0
 11
585.0776286783776
 21
415.8579997850806
 31
0.0
  0
LINE
  5
697
330
1F
100
AcDbEntity
  8
防火材
  6
Continuous
370
    13
100
AcDbLine
 10
585.0776286783776
 20
415.6732336397099
 30
0.0
 11
585.0776286783776
 21
424.4623438237447
 31
0.0
  0
LINE
  5
698
330
1F
100
AcDbEntity
  8
防火材
  6
Continuous
370
    13
100
AcDbLine
 10
584.2512448080388
 20
415.6732336397099
 30
0.0
 11
584.2512448080388
 21
424.4623438237447
 31
0.0
  0
LINE
  5
699
330
1F
100
AcDbEntity
  8
防火材
  6
Continuous
370
    13
100
AcDbLine
 10
584.2512448080388
 20
415.8579997850806
 30
0.0
 11
583.4248609377
 21
415.8579997850806
 31
0.0
  0
LINE
  5
69A
330
1F
100
AcDbEntity
  8
防火材
  6
Continuous
370
    13
100
AcDbLine
 10
583.4248609377
 20
415.6732336397099
 30
0.0
 11
583.4248609377
 21
424.4623438237447
 31
0.0
  0
LINE
  5
69B
330
1F
100
AcDbEntity
  8
防火材
  6
Continuous
370
    13
100
AcDbLine
 10
582.5984770673612
 20
415.6732336397099
 30
0.0
 11
582.5984770673612
 21
424.4623438237447
 31
0.0
  0
LINE
  5
69C
330
1F
100
AcDbEntity
  8
防火材
  6
Continuous
370
    13
100
AcDbLine
 10
582.5984770673612
 20
415.8579997850806
 30
0.0
 11
581.7720931970224
 21
415.8579997850806
 31
0.0
  0
LINE
  5
69D
330
1F
100
AcDbEntity
  8
防火材
  6
Continuous
370
    13
100
AcDbLine
 10
581.7720931970224
 20
415.6732336397099
 30
0.0
 11
581.7720931970224
 21
424.4623438237447
 31
0.0
  0
LINE
  5
69E
330
1F
100
AcDbEntity
  8
防火材
  6
Continuous
370
    13
100
AcDbLine
 10
580.9457093266837
 20
415.6732336397099
 30
0.0
 11
580.9457093266837
 21
424.4623438237447
 31
0.0
  0
LINE
  5
69F
330
1F
100
AcDbEntity
  8
防火材
  6
Continuous
370
    13
100
AcDbLine
 10
595.8206189927816
 20
424.4623438237447
 30
0.0
 11
595.8206189927816
 21
415.6732336397099
 31
0.0
  0
LINE
  5
6A0
330
1F
100
AcDbEntity
  8
防火材
  6
Continuous
370
    13
100
AcDbLine
 10
595.8206189927816
 20
415.8579997850806
 30
0.0
 11
594.9942351224429
 21
415.8579997850806
 31
0.0
  0
LINE
  5
6A1
330
1F
100
AcDbEntity
  8
防火材
  6
Continuous
370
    13
100
AcDbLine
 10
594.9942351224429
 20
415.6732336397099
 30
0.0
 11
594.9942351224429
 21
424.4623438237447
 31
0.0
  0
LINE
  5
6A2
330
1F
100
AcDbEntity
  8
防火材
  6
Continuous
370
    13
100
AcDbLine
 10
597.4733867334592
 20
424.4623438237447
 30
0.0
 11
597.4733867334592
 21
422.9101023182888
 31
0.0
  0
LINE
  5
6A3
330
1F
100
AcDbEntity
  8
防火材
  6
Continuous
370
    13
100
AcDbLine
 10
597.4733867334592
 20
422.0756762455103
 30
0.0
 11
597.4733867334592
 21
415.6732336397099
 31
0.0
  0
LINE
  5
6A4
330
1F
100
AcDbEntity
  8
防火材
  6
Continuous
370
    13
100
AcDbLine
 10
597.4733867334592
 20
415.8579997850806
 30
0.0
 11
596.6470028631204
 21
415.8579997850806
 31
0.0
  0
LINE
  5
6A5
330
1F
100
AcDbEntity
  8
防火材
  6
Continuous
370
    13
100
AcDbLine
 10
596.6470028631204
 20
415.6732336397099
 30
0.0
 11
596.6470028631204
 21
424.4623438237447
 31
0.0
  0
LINE
  5
6A6
330
1F
100
AcDbEntity
  8
防火材
  6
Continuous
370
    13
100
AcDbLine
 10
598.2997706037979
 20
415.6732336397099
 30
0.0
 11
598.2997706037979
 21
420.2916955538507
 31
0.0
  0
LINE
  5
6A7
330
1F
100
AcDbEntity
  8
防火材
  6
Continuous
370
    13
100
AcDbLine
 10
580.1193254563449
 20
415.6732336397101
 30
0.0
 11
579.2929415860062
 21
415.6732336397099
 31
0.0
  0
LINE
  5
6A8
330
1F
100
AcDbEntity
  8
防火材
  6
Continuous
370
    13
100
AcDbLine
 10
578.4665577156674
 20
415.6732336397099
 30
0.0
 11
577.6401738453285
 21
415.6732336397099
 31
0.0
  0
LINE
  5
6A9
330
1F
100
AcDbEntity
  8
防火材
  6
Continuous
370
    13
100
AcDbLine
 10
576.8137899749897
 20
415.6732336397099
 30
0.0
 11
575.987406104651
 21
415.6732336397099
 31
0.0
  0
LINE
  5
6AA
330
1F
100
AcDbEntity
  8
防火材
  6
Continuous
370
    13
100
AcDbLine
 10
575.1610222343122
 20
415.6732336397099
 30
0.0
 11
574.3346383639734
 21
415.6732336397099
 31
0.0
  0
LINE
  5
6AB
330
1F
100
AcDbEntity
  8
防火材
  6
Continuous
370
    13
100
AcDbLine
 10
573.5082544936346
 20
415.6732336397099
 30
0.0
 11
572.6818706232959
 21
415.6732336397101
 31
0.0
  0
LINE
  5
6AC
330
1F
100
AcDbEntity
  8
防火材
  6
Continuous
370
    13
100
AcDbLine
 10
571.8554867529571
 20
415.6732336397101
 30
0.0
 11
571.0291028826183
 21
415.6732336397101
 31
0.0
  0
LINE
  5
6AD
330
1F
100
AcDbEntity
  8
防火材
  6
Continuous
370
    13
100
AcDbLine
 10
570.2027190122796
 20
415.6732336397101
 30
0.0
 11
569.3763351419408
 21
415.6732336397101
 31
0.0
  0
LINE
  5
6AE
330
1F
100
AcDbEntity
  8
防火材
  6
Continuous
370
    13
100
AcDbLine
 10
568.5499512716021
 20
415.6732336397101
 30
0.0
 11
567.7235674012633
 21
415.6732336397103
 31
0.0
  0
LINE
  5
6AF
330
1F
100
AcDbEntity
  8
防火材
  6
Continuous
370
    13
100
AcDbLine
 10
566.8971835309246
 20
415.6732336397103
 30
0.0
 11
566.0707996605858
 21
415.6732336397103
 31
0.0
  0
LINE
  5
6B0
330
1F
100
AcDbEntity
  8
防火材
  6
Continuous
370
    13
100
AcDbLine
 10
579.2929415860062
 20
424.4623438237447
 30
0.0
 11
579.2929415860062
 21
415.6732336397099
 31
0.0
  0
LINE
  5
6B1
330
1F
100
AcDbEntity
  8
防火材
  6
Continuous
370
    13
100
AcDbLine
 10
579.2929415860062
 20
415.8579997850806
 30
0.0
 11
578.4665577156674
 21
415.8579997850806
 31
0.0
  0
LINE
  5
6B2
330
1F
100
AcDbEntity
  8
防火材
  6
Continuous
370
    13
100
AcDbLine
 10
578.4665577156674
 20
415.6732336397099
 30
0.0
 11
578.4665577156674
 21
424.4623438237447
 31
0.0
  0
LINE
  5
6B3
330
1F
100
AcDbEntity
  8
防火材
  6
Continuous
370
    13
100
AcDbLine
 10
577.6401738453285
 20
415.6732336397099
 30
0.0
 11
577.6401738453285
 21
424.4623438237447
 31
0.0
  0
LINE
  5
6B4
330
1F
100
AcDbEntity
  8
防火材
  6
Continuous
370
    13
100
AcDbLine
 10
577.6401738453285
 20
415.8579997850806
 30
0.0
 11
576.8137899749897
 21
415.8579997850806
 31
0.0
  0
LINE
  5
6B5
330
1F
100
AcDbEntity
  8
防火材
  6
Continuous
370
    13
100
AcDbLine
 10
576.8137899749897
 20
415.6732336397099
 30
0.0
 11
576.8137899749897
 21
424.4623438237447
 31
0.0
  0
LINE
  5
6B6
330
1F
100
AcDbEntity
  8
防火材
  6
Continuous
370
    13
100
AcDbLine
 10
575.987406104651
 20
415.6732336397099
 30
0.0
 11
575.987406104651
 21
424.4623438237447
 31
0.0
  0
LINE
  5
6B7
330
1F
100
AcDbEntity
  8
防火材
  6
Continuous
370
    13
100
AcDbLine
 10
575.987406104651
 20
415.8579997850806
 30
0.0
 11
575.1610222343122
 21
415.8579997850806
 31
0.0
  0
LINE
  5
6B8
330
1F
100
AcDbEntity
  8
防火材
  6
Continuous
370
    13
100
AcDbLine
 10
575.1610222343122
 20
415.6732336397099
 30
0.0
 11
575.1610222343122
 21
424.4623438237447
 31
0.0
  0
LINE
  5
6B9
330
1F
100
AcDbEntity
  8
防火材
  6
Continuous
370
    13
100
AcDbLine
 10
574.3346383639734
 20
415.6732336397099
 30
0.0
 11
574.3346383639734
 21
424.4623438237447
 31
0.0
  0
LINE
  5
6BA
330
1F
100
AcDbEntity
  8
防火材
  6
Continuous
370
    13
100
AcDbLine
 10
574.3346383639734
 20
415.8579997850806
 30
0.0
 11
573.5082544936346
 21
415.8579997850806
 31
0.0
  0
LINE
  5
6BB
330
1F
100
AcDbEntity
  8
防火材
  6
Continuous
370
    13
100
AcDbLine
 10
573.5082544936346
 20
415.6732336397099
 30
0.0
 11
573.5082544936346
 21
424.4623438237447
 31
0.0
  0
LINE
  5
6BC
330
1F
100
AcDbEntity
  8
防火材
  6
Continuous
370
    13
100
AcDbLine
 10
572.6818706232959
 20
415.6732336397099
 30
0.0
 11
572.6818706232959
 21
424.4623438237447
 31
0.0
  0
LINE
  5
6BD
330
1F
100
AcDbEntity
  8
防火材
  6
Continuous
370
    13
100
AcDbLine
 10
572.6818706232959
 20
415.8579997850806
 30
0.0
 11
571.8554867529571
 21
415.8579997850806
 31
0.0
  0
LINE
  5
6BE
330
1F
100
AcDbEntity
  8
防火材
  6
Continuous
370
    13
100
AcDbLine
 10
571.8554867529571
 20
415.6732336397099
 30
0.0
 11
571.8554867529571
 21
424.4623438237447
 31
0.0
  0
LINE
  5
6BF
330
1F
100
AcDbEntity
  8
防火材
  6
Continuous
370
    13
100
AcDbLine
 10
571.0291028826183
 20
415.6732336397099
 30
0.0
 11
571.0291028826183
 21
424.4623438237447
 31
0.0
  0
LINE
  5
6C0
330
1F
100
AcDbEntity
  8
防火材
  6
Continuous
370
    13
100
AcDbLine
 10
571.0291028826183
 20
415.8579997850806
 30
0.0
 11
570.2027190122796
 21
415.8579997850806
 31
0.0
  0
LINE
  5
6C1
330
1F
100
AcDbEntity
  8
防火材
  6
Continuous
370
    13
100
AcDbLine
 10
570.2027190122796
 20
415.6732336397099
 30
0.0
 11
570.2027190122796
 21
424.4623438237447
 31
0.0
  0
LINE
  5
6C2
330
1F
100
AcDbEntity
  8
防火材
  6
Continuous
370
    13
100
AcDbLine
 10
569.3763351419408
 20
415.6732336397099
 30
0.0
 11
569.3763351419408
 21
424.4623438237447
 31
0.0
  0
LINE
  5
6C3
330
1F
100
AcDbEntity
  8
防火材
  6
Continuous
370
    13
100
AcDbLine
 10
569.3763351419408
 20
415.8579997850806
 30
0.0
 11
568.5499512716021
 21
415.8579997850806
 31
0.0
  0
LINE
  5
6C4
330
1F
100
AcDbEntity
  8
防火材
  6
Continuous
370
    13
100
AcDbLine
 10
568.5499512716021
 20
415.6732336397099
 30
0.0
 11
568.5499512716021
 21
424.4623438237447
 31
0.0
  0
LINE
  5
6C5
330
1F
100
AcDbEntity
  8
防火材
  6
Continuous
370
    13
100
AcDbLine
 10
567.7235674012633
 20
415.6732336397099
 30
0.0
 11
567.7235674012633
 21
424.4623438237447
 31
0.0
  0
LINE
  5
6C6
330
1F
100
AcDbEntity
  8
防火材
  6
Continuous
370
    13
100
AcDbLine
 10
567.7235674012633
 20
415.8579997850806
 30
0.0
 11
566.8971835309246
 21
415.8579997850806
 31
0.0
  0
LINE
  5
6C7
330
1F
100
AcDbEntity
  8
防火材
  6
Continuous
370
    13
100
AcDbLine
 10
566.8971835309246
 20
415.6732336397099
 30
0.0
 11
566.8971835309246
 21
424.4623438237447
 31
0.0
  0
LINE
  5
6C8
330
1F
100
AcDbEntity
  8
防火材
  6
Continuous
370
    13
100
AcDbLine
 10
566.0707996605858
 20
415.6732336397099
 30
0.0
 11
566.0707996605858
 21
424.4623438237447
 31
0.0
  0
LINE
  5
6C9
330
1F
100
AcDbEntity
  8
防火材
  6
Continuous
370
    13
100
AcDbLine
 10
580.9457093266837
 20
415.8579997850806
 30
0.0
 11
580.1193254563449
 21
415.8579997850806
 31
0.0
  0
LINE
  5
6CA
330
1F
100
AcDbEntity
  8
防火材
  6
Continuous
370
    13
100
AcDbLine
 10
580.1193254563449
 20
415.6732336397099
 30
0.0
 11
580.1193254563449
 21
424.4623438237447
 31
0.0
  0
LINE
  5
6CB
330
1F
100
AcDbEntity
  8
防火材
  6
Continuous
370
    13
100
AcDbLine
 10
565.2444157902468
 20
415.6732336397099
 30
0.0
 11
564.418031919908
 21
415.6732336397101
 31
0.0
  0
LINE
  5
6CC
330
1F
100
AcDbEntity
  8
防火材
  6
Continuous
370
    13
100
AcDbLine
 10
563.5916480495693
 20
415.6732336397101
 30
0.0
 11
562.7652641792305
 21
415.6732336397101
 31
0.0
  0
LINE
  5
6CD
330
1F
100
AcDbEntity
  8
防火材
  6
Continuous
370
    13
100
AcDbLine
 10
561.9388803088918
 20
415.6732336397101
 30
0.0
 11
561.112496438553
 21
415.6732336397101
 31
0.0
  0
LINE
  5
6CE
330
1F
100
AcDbEntity
  8
防火材
  6
Continuous
370
    13
100
AcDbLine
 10
560.2861125682143
 20
415.6732336397101
 30
0.0
 11
559.4597286978755
 21
415.6732336397103
 31
0.0
  0
LINE
  5
6CF
102
{ACAD_REACTORS
330
5FD
102
}
330
1F
100
AcDbEntity
  8
防火材
  6
Continuous
370
    13
100
AcDbLine
 10
558.6333448275367
 20
415.6732336397103
 30
0.0
 11
557.806960957198
 21
415.6732336397103
 31
0.0
  0
LINE
  5
6D0
330
1F
100
AcDbEntity
  8
防火材
  6
Continuous
370
    13
100
AcDbLine
 10
556.9805770868592
 20
415.6732336397103
 30
0.0
 11
556.1541932165205
 21
415.6732336397101
 31
0.0
  0
LINE
  5
6D1
330
1F
100
AcDbEntity
  8
防火材
  6
Continuous
370
    13
100
AcDbLine
 10
555.3278093461817
 20
415.6732336397101
 30
0.0
 11
554.501425475843
 21
415.6732336397099
 31
0.0
  0
LINE
  5
6D2
330
1F
100
AcDbEntity
  8
防火材
  6
Continuous
370
    13
100
AcDbLine
 10
553.6750416055042
 20
415.6732336397099
 30
0.0
 11
552.8486577351655
 21
415.6732336397099
 31
0.0
  0
LINE
  5
6D3
330
1F
100
AcDbEntity
  8
防火材
  6
Continuous
370
    13
100
AcDbLine
 10
566.0707996605858
 20
415.8579997850806
 30
0.0
 11
565.2444157902469
 21
415.8579997850806
 31
0.0
  0
LINE
  5
6D4
330
1F
100
AcDbEntity
  8
防火材
  6
Continuous
370
    13
100
AcDbLine
 10
565.2444157902469
 20
415.6732336397099
 30
0.0
 11
565.2444157902469
 21
424.4623438237447
 31
0.0
  0
LINE
  5
6D5
330
1F
100
AcDbEntity
  8
防火材
  6
Continuous
370
    13
100
AcDbLine
 10
564.418031919908
 20
415.6732336397099
 30
0.0
 11
564.418031919908
 21
424.4623438237447
 31
0.0
  0
LINE
  5
6D6
330
1F
100
AcDbEntity
  8
防火材
  6
Continuous
370
    13
100
AcDbLine
 10
564.418031919908
 20
415.8579997850806
 30
0.0
 11
563.5916480495693
 21
415.8579997850806
 31
0.0
  0
LINE
  5
6D7
330
1F
100
AcDbEntity
  8
防火材
  6
Continuous
370
    13
100
AcDbLine
 10
563.5916480495693
 20
415.6732336397099
 30
0.0
 11
563.5916480495693
 21
424.4623438237447
 31
0.0
  0
LINE
  5
6D8
330
1F
100
AcDbEntity
  8
防火材
  6
Continuous
370
    13
100
AcDbLine
 10
562.7652641792305
 20
415.6732336397099
 30
0.0
 11
562.7652641792305
 21
424.4623438237447
 31
0.0
  0
LINE
  5
6D9
330
1F
100
AcDbEntity
  8
防火材
  6
Continuous
370
    13
100
AcDbLine
 10
562.7652641792305
 20
415.8579997850806
 30
0.0
 11
561.9388803088918
 21
415.8579997850806
 31
0.0
  0
LINE
  5
6DA
330
1F
100
AcDbEntity
  8
防火材
  6
Continuous
370
    13
100
AcDbLine
 10
561.9388803088918
 20
415.6732336397099
 30
0.0
 11
561.9388803088918
 21
424.4623438237447
 31
0.0
  0
LINE
  5
6DB
330
1F
100
AcDbEntity
  8
防火材
  6
Continuous
370
    13
100
AcDbLine
 10
561.112496438553
 20
415.6732336397099
 30
0.0
 11
561.112496438553
 21
424.4623438237447
 31
0.0
  0
LINE
  5
6DC
330
1F
100
AcDbEntity
  8
防火材
  6
Continuous
370
    13
100
AcDbLine
 10
561.112496438553
 20
415.8579997850806
 30
0.0
 11
560.2861125682143
 21
415.8579997850806
 31
0.0
  0
LINE
  5
6DD
330
1F
100
AcDbEntity
  8
防火材
  6
Continuous
370
    13
100
AcDbLine
 10
560.2861125682143
 20
415.6732336397099
 30
0.0
 11
560.2861125682143
 21
424.4623438237447
 31
0.0
  0
LINE
  5
6DE
330
1F
100
AcDbEntity
  8
防火材
  6
Continuous
370
    13
100
AcDbLine
 10
559.4597286978755
 20
415.6732336397099
 30
0.0
 11
559.4597286978755
 21
424.4623438237447
 31
0.0
  0
LINE
  5
6DF
330
1F
100
AcDbEntity
  8
防火材
  6
Continuous
370
    13
100
AcDbLine
 10
559.4597286978755
 20
415.8579997850806
 30
0.0
 11
558.6333448275367
 21
415.8579997850806
 31
0.0
  0
LINE
  5
6E0
330
1F
100
AcDbEntity
  8
防火材
  6
Continuous
370
    13
100
AcDbLine
 10
558.6333448275367
 20
415.6732336397099
 30
0.0
 11
558.6333448275367
 21
424.4623438237447
 31
0.0
  0
LINE
  5
6E1
102
{ACAD_REACTORS
330
5FD
102
}
330
1F
100
AcDbEntity
  8
防火材
  6
Continuous
370
    13
100
AcDbLine
 10
557.806960957198
 20
415.6732336397099
 30
0.0
 11
557.806960957198
 21
424.4623438237447
 31
0.0
  0
LINE
  5
6E2
102
{ACAD_REACTORS
330
5FD
102
}
330
1F
100
AcDbEntity
  8
防火材
  6
Continuous
370
    13
100
AcDbLine
 10
556.9805770868592
 20
415.6732336397101
 30
0.0
 11
556.1541932165205
 21
415.6732336397099
 31
0.0
  0
LINE
  5
6E3
102
{ACAD_REACTORS
330
5FD
102
}
330
1F
100
AcDbEntity
  8
防火材
  6
Continuous
370
    13
100
AcDbLine
 10
555.3278093461817
 20
415.6732336397099
 30
0.0
 11
554.501425475843
 21
415.6732336397099
 31
0.0
  0
LINE
  5
6E4
102
{ACAD_REACTORS
330
5FD
102
}
330
1F
100
AcDbEntity
  8
防火材
  6
Continuous
370
    13
100
AcDbLine
 10
553.6750416055042
 20
415.6732336397099
 30
0.0
 11
552.8486577351655
 21
415.6732336397099
 31
0.0
  0
LINE
  5
6E5
102
{ACAD_REACTORS
330
5FD
102
}
330
1F
100
AcDbEntity
  8
防火材
  6
Continuous
370
    13
100
AcDbLine
 10
556.1541932165205
 20
424.4623438237447
 30
0.0
 11
556.1541932165205
 21
415.6732336397099
 31
0.0
  0
LINE
  5
6E6
102
{ACAD_REACTORS
330
5FD
102
}
330
1F
100
AcDbEntity
  8
防火材
  6
Continuous
370
    13
100
AcDbLine
 10
556.1541932165205
 20
415.8579997850806
 30
0.0
 11
555.3278093461817
 21
415.8579997850806
 31
0.0
  0
LINE
  5
6E7
102
{ACAD_REACTORS
330
5FD
102
}
330
1F
100
AcDbEntity
  8
防火材
  6
Continuous
370
    13
100
AcDbLine
 10
555.3278093461817
 20
415.6732336397099
 30
0.0
 11
555.3278093461817
 21
424.4623438237447
 31
0.0
  0
LINE
  5
6E8
102
{ACAD_REACTORS
330
5FD
102
}
330
1F
100
AcDbEntity
  8
防火材
  6
Continuous
370
    13
100
AcDbLine
 10
554.501425475843
 20
415.6732336397099
 30
0.0
 11
554.501425475843
 21
424.4623438237447
 31
0.0
  0
LINE
  5
6E9
102
{ACAD_REACTORS
330
5FD
102
}
330
1F
100
AcDbEntity
  8
防火材
  6
Continuous
370
    13
100
AcDbLine
 10
554.501425475843
 20
415.8579997850806
 30
0.0
 11
553.6750416055042
 21
415.8579997850806
 31
0.0
  0
LINE
  5
6EA
102
{ACAD_REACTORS
330
5FD
102
}
330
1F
100
AcDbEntity
  8
防火材
  6
Continuous
370
    13
100
AcDbLine
 10
553.6750416055042
 20
415.6732336397099
 30
0.0
 11
553.6750416055042
 21
424.4623438237447
 31
0.0
  0
LINE
  5
6EB
102
{ACAD_REACTORS
330
5FD
102
}
330
1F
100
AcDbEntity
  8
防火材
  6
Continuous
370
    13
100
AcDbLine
 10
552.8486577351655
 20
415.6732336397099
 30
0.0
 11
552.8486577351655
 21
424.4623438237447
 31
0.0
  0
LINE
  5
6EC
102
{ACAD_REACTORS
330
5FD
102
}
330
1F
100
AcDbEntity
  8
防火材
  6
Continuous
370
    13
100
AcDbLine
 10
557.806960957198
 20
415.8579997850806
 30
0.0
 11
556.9805770868592
 21
415.8579997850806
 31
0.0
  0
LINE
  5
6ED
102
{ACAD_REACTORS
330
5FD
102
}
330
1F
100
AcDbEntity
  8
防火材
  6
Continuous
370
    13
100
AcDbLine
 10
556.9805770868592
 20
415.6732336397099
 30
0.0
 11
556.9805770868592
 21
424.4623438237447
 31
0.0
  0
LINE
  5
6EE
102
{ACAD_REACTORS
330
5FD
102
}
330
1F
100
AcDbEntity
  8
防火材
  6
Continuous
370
    13
100
AcDbLine
 10
534.5129275997448
 20
409.6566200555616
 30
0.0
 11
534.5129275997448
 21
415.8579997850804
 31
0.0
  0
LINE
  5
6EF
102
{ACAD_REACTORS
330
5FD
102
}
330
1F
100
AcDbEntity
  8
防火材
  6
Continuous
370
    13
100
AcDbLine
 10
534.5129275997432
 20
441.1825787521627
 30
0.0
 11
534.5129275997432
 21
446.8084657484305
 31
0.0
  0
MULTILEADER
  5
6F0
330
1F
100
AcDbEntity
  8
文字
  6
Continuous
160
               704
310
C0020000190000000C00000016000000000000C00C00000033000000000000000C00000013000000993A0000C0000000260000001755F24B9D028240F14FA5BB1D787940000000000000000000000000000000000000000000000000000000000000F03F000000000000F03F00000000000000000000000000000000AB8C1A
310
906972000003000000010000000000000000000840000000000000F03F0000000000000000000000000000F03F0000000000000000000000000000000000000000000000000000000001000000320000002DFF33FF200030FFB430B730C330AF300000000000000000000000000C00000033000000000000000C0000001000
310
0000040000000C00000016000000000000C00C00000012000000000000000C00000013000000010000000C0000001400000001000000540000000700000003000000806B056D81D681407D951094EDD3794000000000000000009E09BA4EBDCE8140B059D4D768F0794000000000000000002925C753B4DA8140F769834A81
310
DA794000000000000000000C00000014000000010000000C00000013000000891300003C0000000600000002000000554866E09AD88140BAFF496F37D779400000000000000000DA2F2AF89A01824058B60B22846E794000000000000000000C00000013000000122700003C0000000600000002000000DA2F2AF89A018240
310
58B60B22846E794000000000000000005544D83F7C04824058B60B22846E794000000000000000000C00000016000000000000C00C00000012000000000000000C00000017000000000000000C000000130000009A3A00003C00000006000000020000005544D83F7C04824058B60B22846E79400000000000000000A283AC
310
34C068824058B60B22846E794000000000000000000C00000016000000000000C00C00000012000000000000000C000000170000000D0000000C0000003300000000000000
370
    13
100
AcDbMLeader
270
     2
300
CONTEXT_DATA{
 40
1.0
 10
576.5606686492779
 20
406.9072590310583
 30
0.0
 41
3.0
140
2.0
145
0.09
174
     5
175
     5
176
     0
177
     0
290
     1
304
貫通物
 11
0.0
 21
0.0
 31
1.0
340
11
 12
576.650668649278
 22
411.0527135765129
 32
0.0
 13
1.0
 23
0.0
 33
0.0
 42
0.0
 43
25.5442780519661
 44
0.0
 45
1.0
170
     1
 90
-1073741824
171
     1
172
     5
 91
-1073741824
141
0.0
 92
        0
291
     0
292
     0
173
     0
293
     0
142
0.0
143
0.0
294
     0
295
     0
296
     0
110
602.4037418687941
120
393.2243798851164
130
0.0
111
1.0
121
0.0
131
0.0
112
0.0
122
1.0
132
0.0
297
     0
302
LEADER{
290
     1
291
     1
 10
576.200668649278
 20
406.9072590310583
 30
0.0
 11
1.0
 21
0.0
 31
0.0
 90
        1
 40
0.36
304
LEADER_LINE{
 10
569.8424353155312
 20
415.0255964560447
 30
0.0
 91
        0
305
}
271
     0
303
}
272
     9
273
     9
301
}
340
12E
 90
 33904128
170
     1
 91
-1056964608
341
14
171
    -2
290
     1
291
     1
 41
0.36
 42
2.0
172
     2
343
11
173
     5
 95
        5
174
     1
175
     2
 92
-1056964608
292
     0
 93
-1056964608
 10
1.0
 20
1.0
 30
1.0
 43
0.0
176
     0
293
     0
294
     0
178
     0
179
     1
 45
1.0
271
     0
272
     9
273
     9
295
     0
  0
LINE
  5
6F1
330
1F
100
AcDbEntity
  8
防火材
  6
Continuous
370
    13
100
AcDbLine
 10
519.7933029216143
 20
415.6732336397099
 30
0.0
 11
520.6196867919532
 21
415.6732336397099
 31
0.0
  0
LINE
  5
6F2
330
1F
100
AcDbEntity
  8
防火材
  6
Continuous
370
    13
100
AcDbLine
 10
521.446070662292
 20
415.6732336397099
 30
0.0
 11
522.2724545326307
 21
415.6732336397096
 31
0.0
  0
LINE
  5
6F3
330
1F
100
AcDbEntity
  8
防火材
  6
Continuous
370
    13
100
AcDbLine
 10
523.0988384029695
 20
415.6732336397096
 30
0.0
 11
523.9252222733082
 21
415.6732336397096
 31
0.0
  0
LINE
  5
6F4
330
1F
100
AcDbEntity
  8
防火材
  6
Continuous
370
    13
100
AcDbLine
 10
524.751606143647
 20
415.6732336397096
 30
0.0
 11
525.5779900139857
 21
415.6732336397096
 31
0.0
  0
LINE
  5
6F5
330
1F
100
AcDbEntity
  8
防火材
  6
Continuous
370
    13
100
AcDbLine
 10
526.4043738843245
 20
415.6732336397096
 30
0.0
 11
527.2307577546633
 21
415.6732336397099
 31
0.0
  0
LINE
  5
6F6
330
1F
100
AcDbEntity
  8
防火材
  6
Continuous
370
    13
100
AcDbLine
 10
519.7933029216143
 20
415.6732336397099
 30
0.0
 11
520.6196867919532
 21
415.6732336397099
 31
0.0
  0
LINE
  5
6F7
330
1F
100
AcDbEntity
  8
防火材
  6
Continuous
370
    13
100
AcDbLine
 10
521.446070662292
 20
415.6732336397099
 30
0.0
 11
522.2724545326307
 21
415.6732336397099
 31
0.0
  0
LINE
  5
6F8
330
1F
100
AcDbEntity
  8
防火材
  6
Continuous
370
    13
100
AcDbLine
 10
523.0988384029695
 20
415.6732336397099
 30
0.0
 11
523.9252222733082
 21
415.6732336397101
 31
0.0
  0
LINE
  5
6F9
330
1F
100
AcDbEntity
  8
防火材
  6
Continuous
370
    13
100
AcDbLine
 10
524.751606143647
 20
415.6732336397101
 30
0.0
 11
525.5779900139857
 21
415.6732336397101
 31
0.0
  0
LINE
  5
6FA
330
1F
100
AcDbEntity
  8
防火材
  6
Continuous
370
    13
100
AcDbLine
 10
526.4043738843245
 20
415.6732336397101
 30
0.0
 11
527.2307577546633
 21
415.6732336397101
 31
0.0
  0
LINE
  5
6FB
330
1F
100
AcDbEntity
  8
防火材
  6
Continuous
370
    13
100
AcDbLine
 10
518.9669190512756
 20
415.8579997850806
 30
0.0
 11
519.7933029216143
 21
415.8579997850806
 31
0.0
  0
LINE
  5
6FC
330
1F
100
AcDbEntity
  8
防火材
  6
Continuous
370
    13
100
AcDbLine
 10
519.7933029216143
 20
415.6732336397099
 30
0.0
 11
519.7933029216143
 21
424.4623438237447
 31
0.0
  0
LINE
  5
6FD
330
1F
100
AcDbEntity
  8
防火材
  6
Continuous
370
    13
100
AcDbLine
 10
520.6196867919532
 20
415.6732336397099
 30
0.0
 11
520.6196867919532
 21
424.4623438237447
 31
0.0
  0
LINE
  5
6FE
330
1F
100
AcDbEntity
  8
防火材
  6
Continuous
370
    13
100
AcDbLine
 10
520.6196867919532
 20
415.8579997850806
 30
0.0
 11
521.446070662292
 21
415.8579997850806
 31
0.0
  0
LINE
  5
6FF
330
1F
100
AcDbEntity
  8
防火材
  6
Continuous
370
    13
100
AcDbLine
 10
521.446070662292
 20
415.6732336397099
 30
0.0
 11
521.446070662292
 21
424.4623438237447
 31
0.0
  0
LINE
  5
700
330
1F
100
AcDbEntity
  8
防火材
  6
Continuous
370
    13
100
AcDbLine
 10
522.2724545326307
 20
415.6732336397099
 30
0.0
 11
522.2724545326307
 21
424.4623438237447
 31
0.0
  0
LINE
  5
701
330
1F
100
AcDbEntity
  8
防火材
  6
Continuous
370
    13
100
AcDbLine
 10
522.2724545326307
 20
415.8579997850806
 30
0.0
 11
523.0988384029695
 21
415.8579997850806
 31
0.0
  0
LINE
  5
702
330
1F
100
AcDbEntity
  8
防火材
  6
Continuous
370
    13
100
AcDbLine
 10
523.0988384029695
 20
415.6732336397099
 30
0.0
 11
523.0988384029695
 21
424.4623438237447
 31
0.0
  0
LINE
  5
703
330
1F
100
AcDbEntity
  8
防火材
  6
Continuous
370
    13
100
AcDbLine
 10
523.9252222733082
 20
415.6732336397099
 30
0.0
 11
523.9252222733082
 21
424.4623438237447
 31
0.0
  0
LINE
  5
704
330
1F
100
AcDbEntity
  8
防火材
  6
Continuous
370
    13
100
AcDbLine
 10
523.9252222733082
 20
415.8579997850806
 30
0.0
 11
524.751606143647
 21
415.8579997850806
 31
0.0
  0
LINE
  5
705
330
1F
100
AcDbEntity
  8
防火材
  6
Continuous
370
    13
100
AcDbLine
 10
524.751606143647
 20
415.6732336397099
 30
0.0
 11
524.751606143647
 21
424.4623438237447
 31
0.0
  0
LINE
  5
706
330
1F
100
AcDbEntity
  8
防火材
  6
Continuous
370
    13
100
AcDbLine
 10
525.5779900139857
 20
415.6732336397099
 30
0.0
 11
525.5779900139857
 21
424.4623438237447
 31
0.0
  0
LINE
  5
707
330
1F
100
AcDbEntity
  8
防火材
  6
Continuous
370
    13
100
AcDbLine
 10
525.5779900139857
 20
415.8579997850806
 30
0.0
 11
526.4043738843245
 21
415.8579997850806
 31
0.0
  0
LINE
  5
708
330
1F
100
AcDbEntity
  8
防火材
  6
Continuous
370
    13
100
AcDbLine
 10
526.4043738843245
 20
415.6732336397099
 30
0.0
 11
526.4043738843245
 21
424.4623438237447
 31
0.0
  0
LINE
  5
709
330
1F
100
AcDbEntity
  8
防火材
  6
Continuous
370
    13
100
AcDbLine
 10
527.2307577546633
 20
415.6732336397099
 30
0.0
 11
527.2307577546633
 21
424.4623438237447
 31
0.0
  0
LINE
  5
70A
330
1F
100
AcDbEntity
  8
防火材
  6
Continuous
370
    13
100
AcDbLine
 10
528.057141625002
 20
415.6732336397099
 30
0.0
 11
528.8835254953408
 21
415.6732336397099
 31
0.0
  0
LINE
  5
70B
330
1F
100
AcDbEntity
  8
防火材
  6
Continuous
370
    13
100
AcDbLine
 10
529.7099093656795
 20
415.6732336397099
 30
0.0
 11
530.5362932360183
 21
415.6732336397096
 31
0.0
  0
LINE
  5
70C
330
1F
100
AcDbEntity
  8
防火材
  6
Continuous
370
    13
100
AcDbLine
 10
531.362677106357
 20
415.6732336397096
 30
0.0
 11
532.1890609766959
 21
415.6732336397096
 31
0.0
  0
LINE
  5
70D
330
1F
100
AcDbEntity
  8
防火材
  6
Continuous
370
    13
100
AcDbLine
 10
533.0154448470347
 20
415.6732336397096
 30
0.0
 11
533.8418287173734
 21
415.6732336397096
 31
0.0
  0
LINE
  5
70E
330
1F
100
AcDbEntity
  8
防火材
  6
Continuous
370
    13
100
AcDbLine
 10
534.6682125877123
 20
415.6732336397096
 30
0.0
 11
535.4945964580511
 21
415.6732336397099
 31
0.0
  0
LINE
  5
70F
102
{ACAD_REACTORS
330
5FD
102
}
330
1F
100
AcDbEntity
  8
防火材
  6
Continuous
370
    13
100
AcDbLine
 10
528.057141625002
 20
415.6732336397099
 30
0.0
 11
528.8835254953408
 21
415.6732336397099
 31
0.0
  0
LINE
  5
710
102
{ACAD_REACTORS
330
5FD
102
}
330
1F
100
AcDbEntity
  8
防火材
  6
Continuous
370
    13
100
AcDbLine
 10
529.7099093656795
 20
415.6732336397099
 30
0.0
 11
530.5362932360183
 21
415.6732336397099
 31
0.0
  0
LINE
  5
711
102
{ACAD_REACTORS
330
5FD
102
}
330
1F
100
AcDbEntity
  8
防火材
  6
Continuous
370
    13
100
AcDbLine
 10
531.3626771063572
 20
415.6732336397099
 30
0.0
 11
532.1890609766959
 21
415.6732336397101
 31
0.0
  0
LINE
  5
712
102
{ACAD_REACTORS
330
5FD
102
}
330
1F
100
AcDbEntity
  8
防火材
  6
Continuous
370
    13
100
AcDbLine
 10
533.0154448470347
 20
415.6732336397101
 30
0.0
 11
533.8418287173736
 21
415.6732336397101
 31
0.0
  0
LINE
  5
713
330
1F
100
AcDbEntity
  8
防火材
  6
Continuous
370
    13
100
AcDbLine
 10
534.6682125877123
 20
415.6732336397101
 30
0.0
 11
535.4945964580511
 21
415.6732336397101
 31
0.0
  0
LINE
  5
714
330
1F
100
AcDbEntity
  8
防火材
  6
Continuous
370
    13
100
AcDbLine
 10
527.2307577546633
 20
415.8579997850806
 30
0.0
 11
528.057141625002
 21
415.8579997850806
 31
0.0
  0
LINE
  5
715
330
1F
100
AcDbEntity
  8
防火材
  6
Continuous
370
    13
100
AcDbLine
 10
528.057141625002
 20
415.6732336397099
 30
0.0
 11
528.057141625002
 21
424.4623438237447
 31
0.0
  0
LINE
  5
716
102
{ACAD_REACTORS
330
5FD
102
}
330
1F
100
AcDbEntity
  8
防火材
  6
Continuous
370
    13
100
AcDbLine
 10
528.8835254953408
 20
415.6732336397099
 30
0.0
 11
528.8835254953408
 21
424.4623438237447
 31
0.0
  0
LINE
  5
717
102
{ACAD_REACTORS
330
5FD
102
}
330
1F
100
AcDbEntity
  8
防火材
  6
Continuous
370
    13
100
AcDbLine
 10
528.8835254953408
 20
415.8579997850806
 30
0.0
 11
529.7099093656795
 21
415.8579997850806
 31
0.0
  0
LINE
  5
718
102
{ACAD_REACTORS
330
5FD
102
}
330
1F
100
AcDbEntity
  8
防火材
  6
Continuous
370
    13
100
AcDbLine
 10
529.7099093656795
 20
415.6732336397099
 30
0.0
 11
529.7099093656795
 21
424.4623438237447
 31
0.0
  0
LINE
  5
719
102
{ACAD_REACTORS
330
5FD
102
}
330
1F
100
AcDbEntity
  8
防火材
  6
Continuous
370
    13
100
AcDbLine
 10
530.5362932360183
 20
415.6732336397099
 30
0.0
 11
530.5362932360183
 21
424.4623438237447
 31
0.0
  0
LINE
  5
71A
102
{ACAD_REACTORS
330
5FD
102
}
330
1F
100
AcDbEntity
  8
防火材
  6
Continuous
370
    13
100
AcDbLine
 10
530.5362932360183
 20
415.8579997850806
 30
0.0
 11
531.3626771063572
 21
415.8579997850806
 31
0.0
  0
LINE
  5
71B
102
{ACAD_REACTORS
330
5FD
102
}
330
1F
100
AcDbEntity
  8
防火材
  6
Continuous
370
    13
100
AcDbLine
 10
531.3626771063572
 20
415.6732336397099
 30
0.0
 11
531.3626771063572
 21
424.4623438237447
 31
0.0
  0
LINE
  5
71C
102
{ACAD_REACTORS
330
5FD
102
}
330
1F
100
AcDbEntity
  8
防火材
  6
Continuous
370
    13
100
AcDbLine
 10
532.1890609766959
 20
415.6732336397099
 30
0.0
 11
532.1890609766959
 21
424.4623438237447
 31
0.0
  0
LINE
  5
71D
102
{ACAD_REACTORS
330
5FD
102
}
330
1F
100
AcDbEntity
  8
防火材
  6
Continuous
370
    13
100
AcDbLine
 10
532.1890609766959
 20
415.8579997850806
 30
0.0
 11
533.0154448470347
 21
415.8579997850806
 31
0.0
  0
LINE
  5
71E
102
{ACAD_REACTORS
330
5FD
102
}
330
1F
100
AcDbEntity
  8
防火材
  6
Continuous
370
    13
100
AcDbLine
 10
533.0154448470347
 20
415.6732336397099
 30
0.0
 11
533.0154448470347
 21
424.4623438237447
 31
0.0
  0
LINE
  5
71F
102
{ACAD_REACTORS
330
5FD
102
}
330
1F
100
AcDbEntity
  8
防火材
  6
Continuous
370
    13
100
AcDbLine
 10
533.8418287173736
 20
415.6732336397099
 30
0.0
 11
533.8418287173736
 21
424.4623438237447
 31
0.0
  0
LINE
  5
720
102
{ACAD_REACTORS
330
5FD
102
}
330
1F
100
AcDbEntity
  8
防火材
  6
Continuous
370
    13
100
AcDbLine
 10
533.8418287173736
 20
415.8579997850806
 30
0.0
 11
534.6682125877123
 21
415.8579997850806
 31
0.0
  0
LINE
  5
721
330
1F
100
AcDbEntity
  8
防火材
  6
Continuous
370
    13
100
AcDbLine
 10
534.6682125877123
 20
415.6732336397099
 30
0.0
 11
534.6682125877123
 21
424.4623438237447
 31
0.0
  0
LINE
  5
722
330
1F
100
AcDbEntity
  8
防火材
  6
Continuous
370
    13
100
AcDbLine
 10
535.4945964580511
 20
415.6732336397099
 30
0.0
 11
535.4945964580511
 21
424.4623438237447
 31
0.0
  0
LINE
  5
723
330
1F
100
AcDbEntity
  8
防火材
  6
Continuous
370
    13
100
AcDbLine
 10
536.3209803283898
 20
415.6732336397099
 30
0.0
 11
537.1473641987286
 21
415.6732336397099
 31
0.0
  0
LINE
  5
724
330
1F
100
AcDbEntity
  8
防火材
  6
Continuous
370
    13
100
AcDbLine
 10
537.9737480690673
 20
415.6732336397099
 30
0.0
 11
538.8001319394061
 21
415.6732336397096
 31
0.0
  0
LINE
  5
725
330
1F
100
AcDbEntity
  8
防火材
  6
Continuous
370
    13
100
AcDbLine
 10
539.6265158097448
 20
415.6732336397096
 30
0.0
 11
540.4528996800836
 21
415.6732336397096
 31
0.0
  0
LINE
  5
726
330
1F
100
AcDbEntity
  8
防火材
  6
Continuous
370
    13
100
AcDbLine
 10
541.2792835504224
 20
415.6732336397096
 30
0.0
 11
542.1056674207611
 21
415.6732336397096
 31
0.0
  0
LINE
  5
727
330
1F
100
AcDbEntity
  8
防火材
  6
Continuous
370
    13
100
AcDbLine
 10
542.9320512910999
 20
415.6732336397096
 30
0.0
 11
543.7584351614386
 21
415.6732336397099
 31
0.0
  0
LINE
  5
728
330
1F
100
AcDbEntity
  8
防火材
  6
Continuous
370
    13
100
AcDbLine
 10
536.3209803283898
 20
415.6732336397099
 30
0.0
 11
537.1473641987286
 21
415.6732336397099
 31
0.0
  0
LINE
  5
729
330
1F
100
AcDbEntity
  8
防火材
  6
Continuous
370
    13
100
AcDbLine
 10
537.9737480690673
 20
415.6732336397099
 30
0.0
 11
538.8001319394061
 21
415.6732336397099
 31
0.0
  0
LINE
  5
72A
330
1F
100
AcDbEntity
  8
防火材
  6
Continuous
370
    13
100
AcDbLine
 10
539.6265158097448
 20
415.6732336397099
 30
0.0
 11
540.4528996800836
 21
415.6732336397101
 31
0.0
  0
LINE
  5
72B
330
1F
100
AcDbEntity
  8
防火材
  6
Continuous
370
    13
100
AcDbLine
 10
541.2792835504224
 20
415.6732336397101
 30
0.0
 11
542.1056674207611
 21
415.6732336397101
 31
0.0
  0
LINE
  5
72C
330
1F
100
AcDbEntity
  8
防火材
  6
Continuous
370
    13
100
AcDbLine
 10
542.9320512910999
 20
415.6732336397101
 30
0.0
 11
543.7584351614386
 21
415.6732336397101
 31
0.0
  0
LINE
  5
72D
330
1F
100
AcDbEntity
  8
防火材
  6
Continuous
370
    13
100
AcDbLine
 10
535.4945964580511
 20
415.8579997850806
 30
0.0
 11
536.3209803283898
 21
415.8579997850806
 31
0.0
  0
LINE
  5
72E
330
1F
100
AcDbEntity
  8
防火材
  6
Continuous
370
    13
100
AcDbLine
 10
536.3209803283898
 20
415.6732336397099
 30
0.0
 11
536.3209803283898
 21
424.4623438237447
 31
0.0
  0
LINE
  5
72F
330
1F
100
AcDbEntity
  8
防火材
  6
Continuous
370
    13
100
AcDbLine
 10
537.1473641987286
 20
415.6732336397099
 30
0.0
 11
537.1473641987286
 21
424.4623438237447
 31
0.0
  0
LINE
  5
730
330
1F
100
AcDbEntity
  8
防火材
  6
Continuous
370
    13
100
AcDbLine
 10
537.1473641987286
 20
415.8579997850806
 30
0.0
 11
537.9737480690673
 21
415.8579997850806
 31
0.0
  0
LINE
  5
731
330
1F
100
AcDbEntity
  8
防火材
  6
Continuous
370
    13
100
AcDbLine
 10
537.9737480690673
 20
415.6732336397099
 30
0.0
 11
537.9737480690673
 21
424.4623438237447
 31
0.0
  0
LINE
  5
732
330
1F
100
AcDbEntity
  8
防火材
  6
Continuous
370
    13
100
AcDbLine
 10
538.8001319394061
 20
415.6732336397099
 30
0.0
 11
538.8001319394061
 21
424.4623438237447
 31
0.0
  0
LINE
  5
733
330
1F
100
AcDbEntity
  8
防火材
  6
Continuous
370
    13
100
AcDbLine
 10
538.8001319394061
 20
415.8579997850806
 30
0.0
 11
539.6265158097448
 21
415.8579997850806
 31
0.0
  0
LINE
  5
734
330
1F
100
AcDbEntity
  8
防火材
  6
Continuous
370
    13
100
AcDbLine
 10
539.6265158097448
 20
415.6732336397099
 30
0.0
 11
539.6265158097448
 21
424.4623438237447
 31
0.0
  0
LINE
  5
735
330
1F
100
AcDbEntity
  8
防火材
  6
Continuous
370
    13
100
AcDbLine
 10
540.4528996800836
 20
415.6732336397099
 30
0.0
 11
540.4528996800836
 21
424.4623438237447
 31
0.0
  0
LINE
  5
736
330
1F
100
AcDbEntity
  8
防火材
  6
Continuous
370
    13
100
AcDbLine
 10
540.4528996800836
 20
415.8579997850806
 30
0.0
 11
541.2792835504224
 21
415.8579997850806
 31
0.0
  0
LINE
  5
737
330
1F
100
AcDbEntity
  8
防火材
  6
Continuous
370
    13
100
AcDbLine
 10
541.2792835504224
 20
415.6732336397099
 30
0.0
 11
541.2792835504224
 21
424.4623438237447
 31
0.0
  0
LINE
  5
738
330
1F
100
AcDbEntity
  8
防火材
  6
Continuous
370
    13
100
AcDbLine
 10
542.1056674207611
 20
415.6732336397099
 30
0.0
 11
542.1056674207611
 21
424.4623438237447
 31
0.0
  0
LINE
  5
739
330
1F
100
AcDbEntity
  8
防火材
  6
Continuous
370
    13
100
AcDbLine
 10
542.1056674207611
 20
415.8579997850806
 30
0.0
 11
542.9320512910999
 21
415.8579997850806
 31
0.0
  0
LINE
  5
73A
330
1F
100
AcDbEntity
  8
防火材
  6
Continuous
370
    13
100
AcDbLine
 10
542.9320512910999
 20
415.6732336397099
 30
0.0
 11
542.9320512910999
 21
424.4623438237447
 31
0.0
  0
LINE
  5
73B
330
1F
100
AcDbEntity
  8
防火材
  6
Continuous
370
    13
100
AcDbLine
 10
543.7584351614386
 20
415.6732336397099
 30
0.0
 11
543.7584351614386
 21
424.4623438237447
 31
0.0
  0
LINE
  5
73C
330
1F
100
AcDbEntity
  8
防火材
  6
Continuous
370
    13
100
AcDbLine
 10
544.5848190317774
 20
415.6732336397099
 30
0.0
 11
545.4112029021163
 21
415.6732336397099
 31
0.0
  0
LINE
  5
73D
330
1F
100
AcDbEntity
  8
防火材
  6
Continuous
370
    13
100
AcDbLine
 10
544.5848190317774
 20
415.6732336397099
 30
0.0
 11
545.4112029021163
 21
415.6732336397099
 31
0.0
  0
LINE
  5
73E
330
1F
100
AcDbEntity
  8
防火材
  6
Continuous
370
    13
100
AcDbLine
 10
543.7584351614386
 20
415.8579997850806
 30
0.0
 11
544.5848190317774
 21
415.8579997850806
 31
0.0
  0
LINE
  5
73F
330
1F
100
AcDbEntity
  8
防火材
  6
Continuous
370
    13
100
AcDbLine
 10
544.5848190317774
 20
415.6732336397099
 30
0.0
 11
544.5848190317774
 21
424.4623438237447
 31
0.0
  0
LINE
  5
740
330
1F
100
AcDbEntity
  8
防火材
  6
Continuous
370
    13
100
AcDbLine
 10
545.4112029021163
 20
415.6732336397099
 30
0.0
 11
545.4112029021163
 21
424.4623438237447
 31
0.0
  0
LINE
  5
741
330
1F
100
AcDbEntity
  8
防火材
  6
Continuous
370
    13
100
AcDbLine
 10
545.4112029021163
 20
415.8579997850806
 30
0.0
 11
546.2375867724552
 21
415.8579997850806
 31
0.0
  0
LINE
  5
742
330
1F
100
AcDbEntity
  8
防火材
  6
Continuous
370
    13
100
AcDbLine
 10
546.2375867724552
 20
415.6732336397099
 30
0.0
 11
547.0639706427939
 21
415.6732336397099
 31
0.0
  0
LINE
  5
743
330
1F
100
AcDbEntity
  8
防火材
  6
Continuous
370
    13
100
AcDbLine
 10
546.2375867724552
 20
415.6732336397099
 30
0.0
 11
547.0639706427939
 21
415.6732336397099
 31
0.0
  0
LINE
  5
744
330
1F
100
AcDbEntity
  8
防火材
  6
Continuous
370
    13
100
AcDbLine
 10
546.2375867724552
 20
415.6732336397099
 30
0.0
 11
546.2375867724552
 21
424.4623438237447
 31
0.0
  0
LINE
  5
745
330
1F
100
AcDbEntity
  8
防火材
  6
Continuous
370
    13
100
AcDbLine
 10
547.0639706427939
 20
415.6732336397099
 30
0.0
 11
547.0639706427939
 21
424.4623438237447
 31
0.0
  0
LINE
  5
746
330
1F
100
AcDbEntity
  8
防火材
  6
Continuous
370
    13
100
AcDbLine
 10
547.0639706427939
 20
415.8579997850806
 30
0.0
 11
547.8903545131327
 21
415.8579997850806
 31
0.0
  0
LINE
  5
747
330
1F
100
AcDbEntity
  8
防火材
  6
Continuous
370
    13
100
AcDbLine
 10
547.8903545131327
 20
415.6732336397099
 30
0.0
 11
548.7167383834714
 21
415.6732336397099
 31
0.0
  0
LINE
  5
748
330
1F
100
AcDbEntity
  8
防火材
  6
Continuous
370
    13
100
AcDbLine
 10
547.8903545131327
 20
415.6732336397099
 30
0.0
 11
548.7167383834714
 21
415.6732336397099
 31
0.0
  0
LINE
  5
749
330
1F
100
AcDbEntity
  8
防火材
  6
Continuous
370
    13
100
AcDbLine
 10
547.8903545131327
 20
415.6732336397099
 30
0.0
 11
547.8903545131327
 21
424.4623438237447
 31
0.0
  0
LINE
  5
74A
330
1F
100
AcDbEntity
  8
防火材
  6
Continuous
370
    13
100
AcDbLine
 10
548.7167383834714
 20
415.6732336397099
 30
0.0
 11
548.7167383834714
 21
424.4623438237447
 31
0.0
  0
LINE
  5
74B
330
1F
100
AcDbEntity
  8
防火材
  6
Continuous
370
    13
100
AcDbLine
 10
548.7167383834714
 20
415.8579997850806
 30
0.0
 11
549.5431222538102
 21
415.8579997850806
 31
0.0
  0
LINE
  5
74C
330
1F
100
AcDbEntity
  8
防火材
  6
Continuous
370
    13
100
AcDbLine
 10
549.5431222538102
 20
415.6732336397099
 30
0.0
 11
550.3695061241489
 21
415.6732336397099
 31
0.0
  0
LINE
  5
74D
330
1F
100
AcDbEntity
  8
防火材
  6
Continuous
370
    13
100
AcDbLine
 10
549.5431222538102
 20
415.6732336397099
 30
0.0
 11
550.3695061241489
 21
415.6732336397099
 31
0.0
  0
LINE
  5
74E
330
1F
100
AcDbEntity
  8
防火材
  6
Continuous
370
    13
100
AcDbLine
 10
549.5431222538102
 20
415.6732336397099
 30
0.0
 11
549.5431222538102
 21
424.4623438237447
 31
0.0
  0
LINE
  5
74F
330
1F
100
AcDbEntity
  8
防火材
  6
Continuous
370
    13
100
AcDbLine
 10
550.3695061241489
 20
415.6732336397099
 30
0.0
 11
550.3695061241489
 21
424.4623438237447
 31
0.0
  0
LINE
  5
750
330
1F
100
AcDbEntity
  8
防火材
  6
Continuous
370
    13
100
AcDbLine
 10
550.3695061241489
 20
415.8579997850806
 30
0.0
 11
551.1958899944877
 21
415.8579997850806
 31
0.0
  0
LINE
  5
751
330
1F
100
AcDbEntity
  8
防火材
  6
Continuous
370
    13
100
AcDbLine
 10
551.1958899944877
 20
415.6732336397099
 30
0.0
 11
552.0222738648266
 21
415.6732336397099
 31
0.0
  0
LINE
  5
752
330
1F
100
AcDbEntity
  8
防火材
  6
Continuous
370
    13
100
AcDbLine
 10
551.1958899944877
 20
415.6732336397099
 30
0.0
 11
552.0222738648266
 21
415.6732336397099
 31
0.0
  0
LINE
  5
753
330
1F
100
AcDbEntity
  8
防火材
  6
Continuous
370
    13
100
AcDbLine
 10
551.1958899944877
 20
415.6732336397099
 30
0.0
 11
551.1958899944877
 21
424.4623438237447
 31
0.0
  0
LINE
  5
754
330
1F
100
AcDbEntity
  8
防火材
  6
Continuous
370
    13
100
AcDbLine
 10
552.0222738648266
 20
415.6732336397099
 30
0.0
 11
552.0222738648266
 21
424.4623438237447
 31
0.0
  0
LINE
  5
755
102
{ACAD_REACTORS
330
5FD
102
}
330
1F
100
AcDbEntity
  8
防火材
  6
Continuous
370
    13
100
AcDbLine
 10
552.0222738648266
 20
415.8579997850806
 30
0.0
 11
552.8486577351655
 21
415.8579997850806
 31
0.0
  0
LINE
  5
756
330
1F
100
AcDbEntity
  8
防火材
  6
Continuous
370
    13
100
AcDbLine
 10
599.1261544741367
 20
416.9652266177499
 30
0.0
 11
599.1261544741367
 21
418.9756289894926
 31
0.0
  0
LINE
  5
757
102
{ACAD_REACTORS
330
5FD
102
}
330
1F
100
AcDbEntity
  8
防火材
  6
Continuous
370
    13
100
AcDbLine
 10
528.5126862997731
 20
446.8084657484296
 30
0.0
 11
528.5126862997743
 21
441.182578752162
 31
0.0
  0
LINE
  5
758
102
{ACAD_REACTORS
330
5FD
102
}
330
1F
100
AcDbEntity
  8
防火材
  6
Continuous
370
    13
100
AcDbLine
 10
528.512686299773
 20
409.6566200555587
 30
0.0
 11
528.512686299773
 21
415.6732336397099
 31
0.0
  0
LINE
  5
759
102
{ACAD_REACTORS
330
5FD
102
}
330
1F
100
AcDbEntity
  8
防火材
  6
Continuous
370
    13
100
AcDbLine
 10
552.5128471664199
 20
446.8084657484298
 30
0.0
 11
552.5128471664199
 21
441.182578752162
 31
0.0
  0
LINE
  5
75A
102
{ACAD_REACTORS
330
5FD
102
}
330
1F
100
AcDbEntity
  8
防火材
  6
Continuous
370
    13
100
AcDbLine
 10
558.5131307997175
 20
446.8084657484298
 30
0.0
 11
558.5131307997175
 21
441.182578752162
 31
0.0
  0
LINE
  5
75B
102
{ACAD_REACTORS
330
5FD
102
}
330
1F
100
AcDbEntity
  8
防火材
  6
Continuous
370
    13
100
AcDbLine
 10
552.5128471664199
 20
409.6566200555616
 30
0.0
 11
552.5128471664199
 21
415.8579997850806
 31
0.0
  0
LINE
  5
75C
102
{ACAD_REACTORS
330
5FD
102
}
330
1F
100
AcDbEntity
  8
防火材
  6
Continuous
370
    13
100
AcDbLine
 10
558.5127074664359
 20
409.6566200555616
 30
0.0
 11
558.5127074664358
 21
415.6732336397101
 31
0.0
  0
MULTILEADER
  5
75D
330
1F
100
AcDbEntity
  8
文字
  6
Continuous
160
               708
310
C4020000190000000C00000016000000000000C00C00000033000000000000000C00000013000000993A0000C400000026000000391CB7F0C4BB81403EB7945F66E47B40000000000000000000000000000000000000000000000000000000000000F03F000000000000F03F000000000000000000000000000000005E9710
310
806B70D130C630000005000000010000000000000000000840000000000000F03F0000000000000000000000000000F03F0000000000000000000000000000000000000000000000000000000001000000320000002DFF33FF200030FFB430B730C330AF300000000000000000000000000C00000033000000000000000C00
310
000010000000040000000C00000016000000000000C00C00000012000000000000000C00000013000000010000000C000000140000000100000054000000070000000300000022F2F54752848140EF914AACADC07B400000000000000000DC1A52E41A7481406037BDA8EDBF7B400000000000000000290F8ABE5283814075
310
803E1628CB7B4000000000000000000C00000014000000010000000C00000013000000891300003C0000000600000002000000A5004083D2838140328944E1EAC57B40000000000000000070C834B49FBA8140A41DFBC5CCDA7B4000000000000000000C00000013000000122700003C000000060000000200000070C834B4
310
9FBA8140A41DFBC5CCDA7B400000000000000000EBDCE2FB80BD8140A41DFBC5CCDA7B4000000000000000000C00000016000000000000C00C00000012000000000000000C00000017000000000000000C000000130000009A3A00003C0000000600000002000000EBDCE2FB80BD8140A41DFBC5CCDA7B4000000000000000
310
0067D69F9350648240A41DFBC5CCDA7B4000000000000000000C00000016000000000000C00C00000012000000000000000C000000170000000D0000000C0000003300000000000000
370
    13
100
AcDbMLeader
270
     2
300
CONTEXT_DATA{
 40
1.0
 10
567.6879804347676
 20
445.6749934968195
 30
0.0
 41
3.0
140
2.0
145
0.09
174
     5
175
     5
176
     0
177
     0
290
     1
304
{\fMS PGothic|b0|i0|c128|p50;非耐火パテ}
 11
0.0
 21
0.0
 31
1.0
340
11
 12
567.7779804347676
 22
449.7352207695468
 32
0.0
 13
1.0
 23
0.0
 33
0.0
 42
0.0
 43
28.79394255978695
 44
0.0
 45
1.0
170
     1
 90
-1073741824
171
     1
172
     5
 91
-1073741824
141
0.0
 92
        0
291
     0
292
     0
173
     0
293
     0
142
0.0
143
0.0
294
     0
295
     0
296
     0
110
530.463708407906
120
451.4276433040001
130
0.0
111
1.0
121
0.0
131
0.0
112
0.0
122
1.0
132
0.0
297
     0
302
LEADER{
290
     1
291
     1
 10
567.3279804347676
 20
445.6749934968195
 30
0.0
 11
1.0
 21
0.0
 31
0.0
 90
        1
 40
0.36
304
LEADER_LINE{
 10
558.5131307997175
 20
443.9955222502958
 30
0.0
 91
        0
305
}
271
     0
303
}
272
     9
273
     9
301
}
340
12E
 90
 33904128
170
     1
 91
-1056964608
341
14
171
    -2
290
     1
291
     1
 41
0.36
 42
2.0
172
     2
343
11
173
     5
 95
        5
174
     1
175
     2
 92
-1056964608
292
     0
 93
-1056964608
 10
1.0
 20
1.0
 30
1.0
 43
0.0
176
     0
293
     0
294
     0
178
     0
179
     1
 45
1.0
271
     0
272
     9
273
     9
295
     0
  0
LINE
  5
75E
330
1F
100
AcDbEntity
  8
図面枠
  6
Continuous
370
    13
100
AcDbLine
 10
518.8795339207199
 20
327.7758907476034
 30
0.0
 11
518.8795339207198
 21
286.6990882321551
 31
0.0
  0
MTEXT
  5
75F
330
1F
100
AcDbEntity
  8
文字
  6
Continuous
370
    13
100
AcDbMText
 10
523.3821085853037
 20
310.250481333873
 30
0.0
 40
2.0
 41
64.61345738316267
 46
0.0
 71
     1
 72
     5
  1
１　貫通物と開口の空間にパテを充てんする（両側）。
 73
     1
 44
1.05
101
Embedded Object
 70
     1
 10
1.0
 20
0.0
 30
0.0
 11
523.3821085853037
 21
310.250481333873
 31
0.0
 40
64.61345738316267
 41
0.0
 42
63.17045454545454
 43
2.636363636363636
 71
     2
 72
     1
 44
64.61345738316267
 45
0.8849620939533352
 73
     0
 74
     0
 46
17.87631252929234
  0
MULTILEADER
  5
760
330
1F
100
AcDbEntity
  8
文字
  6
Continuous
160
               708
310
C4020000190000000C00000016000000000000C00C00000033000000000000000C00000013000000993A0000C400000026000000573968ACF7A77A40DE7B92BDF9677C40000000000000000000000000000000000000000000000000000000000000F03F000000000000F03F000000000000000000000000000000005E9710
310
806B70D130C630000005000000010000000000000000000840000000000000F03F0000000000000000000000000000F03F0000000000000000000000000000000000000000000000000000000001000000320000002DFF33FF200030FFB430B730C330AF300000000000000000000000000C00000033000000000000000C00
310
000010000000040000000C00000016000000000000C00C00000012000000000000000C00000013000000010000000C000000140000000100000054000000070000000300000010F8E4AD83527C406AF2BC76B7DA7B400000000000000000D6E1B5ECE85D7C4088764FB057BC7B4000000000000000009AD5C57E47497C4069
310
C99C0461D57B4000000000000000000C00000014000000010000000C00000013000000891300003C0000000600000002000000D5665596E54D7C40EADDAC3D0CD87B400000000000000000E8E06C2542007C4044E2F823605E7C4000000000000000000C00000013000000112700003C0000000600000002000000E8E06C25
310
42007C4044E2F823605E7C400000000000000000F2B710967FFA7B4044E2F823605E7C4000000000000000000C00000016000000000000C00C00000012000000000000000C00000017000000000000000C000000130000009A3A00003C0000000600000002000000FAC49666E0AC7A4044E2F823605E7C4000000000000000
310
00F2B710967FFA7B4044E2F823605E7C4000000000000000000C00000016000000000000C00C00000012000000000000000C000000170000000D0000000C0000003300000000000000
370
    13
100
AcDbMLeader
270
     2
300
CONTEXT_DATA{
 40
1.0
 10
426.7147853364402
 20
453.8984718057657
 30
0.0
 41
3.0
140
2.0
145
0.09
174
     5
175
     5
176
     2
177
     0
290
     1
304
{\fMS PGothic|b0|i0|c128|p50;非耐火パテ}
 11
0.0
 21
0.0
 31
1.0
340
11
 12
447.5661489728038
 22
457.9586990784929
 32
0.0
 13
1.0
 23
0.0
 33
0.0
 42
0.0
 43
28.79394255978695
 44
0.0
 45
1.0
170
     1
 90
-1073741824
171
     3
172
     5
 91
-1073741824
141
0.0
 92
        0
291
     0
292
     0
173
     0
293
     0
142
0.0
143
0.0
294
     0
295
     0
296
     0
110
449.2737116295813
120
449.4638443892993
130
0.0
111
1.0
121
0.0
131
0.0
112
0.0
122
1.0
132
0.0
297
     0
302
LEADER{
290
     1
291
     1
 10
448.0161489728039
 20
453.8984718057657
 30
0.0
 11
-1.0
 21
0.0
 31
0.0
 90
        0
 40
0.36
304
LEADER_LINE{
 10
453.8693663697025
 20
443.7714083770774
 30
0.0
 91
        0
305
}
271
     0
303
}
272
     9
273
     9
301
}
340
12E
 90
 33904128
170
     1
 91
-1056964608
341
14
171
    -2
290
     1
291
     1
 41
0.36
 42
2.0
172
     2
343
11
173
     5
 95
        5
174
     1
175
     2
 92
-1056964608
292
     0
 93
-1056964608
 10
1.0
 20
1.0
 30
1.0
 43
0.0
176
     0
293
     0
294
     0
178
     0
179
     3
 45
1.0
271
     0
272
     9
273
     9
295
     0
  0
HATCH
  5
761
330
1F
100
AcDbEntity
  8
防火材
  6
Continuous
100
AcDbHatch
 10
0.0
 20
0.0
 30
0.0
210
0.0
220
0.0
230
1.0
  2
AR-SAND
 70
     0
 71
     1
 91
       43
 92
        7
 72
     1
 73
     1
 93
        2
 10
434.1206790569339
 20
428.2325429019961
 42
1.0
 10
471.2725247498018
 20
428.2325429019961
 42
1.0
 97
        1
330
7B5
 92
       22
 72
     1
 73
     1
 93
        8
 10
452.7450266989054
 20
428.8994281249213
 42
-0.514967427272461
 10
458.6191026581348
 20
433.1044531681307
 42
-0.3207427164120692
 10
457.1196168173157
 20
435.201499852859
 42
-1.0
 10
461.5518444541681
 20
435.201499852859
 42
-0.5156384625945138
 10
458.6169374619656
 20
433.0981172203442
 42
-0.3207427164120691
 10
461.6191953012581
 20
428.8994281249213
 42
-1.0
 10
452.7450266989054
 20
428.8994281249213
 42
-1.0
 10
443.8708580965527
 20
428.8994281249213
 42
-1.0
 97
        3
330
76B
330
7AE
330
767
 92
        6
 72
     1
 73
     1
 93
        2
 10
451.8969285405313
 20
428.8994281249213
 42
-1.0
 10
444.7189562549268
 20
428.8994281249213
 42
-1.0
 97
        1
330
768
 92
        6
 72
     1
 73
     1
 93
        2
 10
450.7772517374964
 20
428.8994281249213
 42
-1.0
 10
445.8386330579618
 20
428.8994281249213
 42
-1.0
 97
        1
330
7B3
 92
       22
 72
     1
 73
     1
 93
        2
 10
448.2595176021915
 20
436.7454944509861
 42
-1.0
 10
457.1336862045442
 20
436.7454944509861
 42
-1.0
 97
        1
330
76F
 92
        6
 72
     1
 73
     1
 93
        2
 10
449.1076157605656
 20
436.7454944509861
 42
-1.0
 10
456.2855880461701
 20
436.7454944509861
 42
-1.0
 97
        1
330
770
 92
        6
 72
     1
 73
     1
 93
        2
 10
450.2272925636005
 20
436.7454944509861
 42
-1.0
 10
455.1659112431351
 20
436.7454944509861
 42
-1.0
 97
        1
330
772
 92
       22
 72
     1
 73
     1
 93
        2
 10
457.5511413573337
 20
420.5572832230505
 42
-1.0
 10
447.7830421906528
 20
420.5572832230505
 42
-1.0
 97
        1
330
762
 92
        6
 72
     1
 73
     1
 93
        2
 10
456.8086646576845
 20
420.5572832230505
 42
-1.0
 10
448.5255188903021
 20
420.5572832230505
 42
-1.0
 97
        1
330
763
 92
        6
 72
     1
 73
     1
 93
        2
 10
460.771097142884
 20
428.8994281249213
 42
-1.0
 10
453.5931248572795
 20
428.8994281249213
 42
-1.0
 97
        1
330
76C
 92
        6
 72
     1
 73
     1
 93
       29
 10
451.3560192549475
 20
422.2890737114378
 42
-1.014866655318955
 10
452.5044110057995
 20
422.6829708177802
 42
-0.1349062590919132
 10
452.4204085634824
 20
422.9886409317114
 42
-1.0
 10
453.6166907916423
 20
422.9886409317114
 42
-0.06909958067692
 10
453.6400058006863
 20
422.8257615934892
 42
-0.8793993949260181
 10
454.8167453023062
 20
422.6741149704175
 42
-0.2798769107876068
 10
454.5189987017315
 20
422.1291701445527
 42
-0.570767275338942
 10
455.4058931507436
 20
421.6053435473677
 42
-0.6009465842576837
 10
454.5416966657404
 20
420.9978998146914
 42
-0.297861041227438
 10
454.8998654143225
 20
420.4500074382613
 42
-0.4145092278787882
 10
454.3224165940185
 20
419.83128238838
 42
-0.4240395147167565
 10
454.9405504268226
 20
419.2334754935127
 42
-0.6924934301204197
 10
453.913989235728
 20
418.7860583640904
 42
-0.2045547137306195
 10
454.0984518576417
 20
418.3540364925702
 42
-1.0
 10
452.9021696294817
 20
418.3540364925702
 42
-0.3109519415766973
 10
453.2681323572564
 20
418.9252367864916
 42
-0.2267458436023209
 10
452.4921505036624
 20
418.9606714520794
 42
-0.274146156337089
 10
452.8032611736172
 20
418.4358988189342
 42
-1.0
 10
451.6069789454573
 20
418.4358988189342
 42
-0.2343679457036342
 10
451.8177215821546
 20
418.9238805317907
 42
-0.6275744471946535
 10
450.8476757298827
 20
419.3923457472156
 42
-0.1091517191029313
 10
450.8893284309734
 20
419.6470400396492
 42
-0.8055111128804329
 10
449.7473040103844
 20
419.8959652116464
 42
-0.3590771196269482
 10
450.1704120745024
 20
420.5284944564068
 42
-0.4956855096246559
 10
449.412748716893
 20
421.1049712089061
 42
-1.0
 10
450.609030945053
 20
421.1049712089061
 42
-0.0344909354235546
 10
450.6210533698124
 20
421.0234289925945
 42
-0.2368443391371026
 10
451.0546380818827
 20
421.7049918151194
 42
-0.5762878927218989
 10
450.1590796380238
 20
422.2239481950782
 42
-1.002029470884111
 97
       15
330
773
330
777
330
7A7
330
77E
330
780
330
77D
330
77F
330
7A4
330
779
330
77B
330
7B4
330
775
330
7AB
330
764
330
7A9
 92
        6
 72
     1
 73
     1
 93
        2
 10
451.2696660807352
 20
422.2239481950782
 42
-1.0
 10
450.2447754234721
 20
422.2239481950782
 42
-1.0
 97
        1
330
7AA
 92
        6
 72
     1
 73
     1
 93
        2
 10
459.651420339849
 20
428.8994281249213
 42
-1.0
 10
454.7128016603145
 20
428.8994281249213
 42
-1.0
 97
        1
330
76E
 92
        6
 72
     1
 73
     1
 93
        2
 10
450.5233351596046
 20
421.1049712089061
 42
-1.0
 10
449.4984445023415
 20
421.1049712089061
 42
-1.0
 97
        1
330
7AC
 92
        6
 72
     1
 73
     1
 93
        2
 10
452.4630991281603
 20
422.3537463543671
 42
-1.0
 10
451.4382084708972
 20
422.3537463543671
 42
-1.0
 97
        1
330
774
 92
        6
 72
     1
 73
     1
 93
        6
 10
453.530995006194
 20
422.9886409317114
 42
-0.3916426459172373
 10
453.1075302674413
 20
422.4362591378503
 42
-0.4618049042805693
 10
454.1512281494396
 20
421.5472311849957
 42
-1.0
 10
452.3502510637666
 20
421.5472311849957
 42
-0.3812131880602818
 10
453.1000465022068
 20
422.4827175359198
 42
-0.4618049042805694
 10
452.5061043489309
 20
422.9886409317114
 42
-1.0
 97
        2
330
778
330
7A1
 92
        6
 72
     1
 73
     1
 93
        2
 10
452.2850822333139
 20
420.9041482030265
 42
-1.0
 10
450.7421314599916
 20
420.9041482030265
 42
-1.0
 97
        1
330
766
 92
        6
 72
     1
 73
     1
 93
        2
 10
450.8578904530962
 20
419.8959652116464
 42
-1.0
 10
449.8329997958331
 20
419.8959652116464
 42
-1.0
 97
        1
330
776
 92
        6
 72
     1
 73
     1
 93
        2
 10
454.0222149932643
 20
421.5472311849957
 42
-1.0
 10
452.4792642199419
 20
421.5472311849957
 42
-1.0
 97
        1
330
7A3
 92
        6
 72
     1
 73
     1
 93
        2
 10
457.3476973528498
 20
435.201499852859
 42
-1.0
 10
461.323763918634
 20
435.201499852859
 42
-1.0
 97
        1
330
7AD
 92
        6
 72
     1
 73
     1
 93
        2
 10
454.7310495168578
 20
422.6741149704175
 42
-1.0
 10
453.7061588595947
 20
422.6741149704175
 42
-1.0
 97
        1
330
7A8
 92
        6
 72
     1
 73
     1
 93
        2
 10
457.810990686327
 20
435.201499852859
 42
-1.0
 10
460.8604705851568
 20
435.201499852859
 42
-1.0
 97
        1
330
7AF
 92
        6
 72
     1
 73
     1
 93
        2
 10
451.9582621725942
 20
419.3923457472156
 42
-1.0
 10
450.9333715153311
 20
419.3923457472156
 42
-1.0
 97
        1
330
77C
 92
        6
 72
     1
 73
     1
 93
        2
 10
453.7005237414241
 20
419.7594439879908
 42
-1.0
 10
452.1575729681019
 20
419.7594439879908
 42
-1.0
 97
        1
330
7A6
 92
        6
 72
     1
 73
     1
 93
        2
 10
455.2929190195721
 20
421.6552273618524
 42
1.0
 10
455.1329352060769
 20
421.6552273618524
 42
1.0
 97
        1
330
7E3
 92
        6
 72
     1
 73
     1
 93
        3
 10
455.2015912443278
 20
421.9165246437744
 42
-0.4914823988026125
 10
455.1661335661552
 20
421.7512067163741
 42
-0.4391842226814339
 10
455.3125132293744
 20
421.6937536891468
 42
0.1232516690452515
 97
        3
330
7E6
330
7E2
330
7D8
 92
        6
 72
     1
 73
     1
 93
       20
 10
454.6205460579092
 20
421.9320891169895
 42
-0.985978401259304
 10
454.831577320606
 20
421.9808627266825
 42
-0.9732944738322519
 10
455.044978150617
 20
421.9750855601084
 42
-0.2658391499474094
 10
455.0521112350576
 20
421.8959609590838
 42
-0.7346780680227046
 10
455.1978008883491
 20
421.8503264190492
 42
-1.138989080311864
 10
455.0212709948161
 20
421.805146132971
 42
-0.4840404473177914
 10
454.9535702099407
 20
421.6519409378017
 42
-0.7122424786760078
 10
455.0723594166835
 20
421.4887767299583
 42
-0.7440449579056795
 10
455.268285644953
 20
421.4300027947918
 42
-1.367423234171507
 10
455.0712240342313
 20
421.3350022570255
 42
-0.2055365636027232
 10
455.1044450247639
 20
421.2576010395439
 42
-1.369238938945232
 10
454.8867430757426
 20
421.2332818722318
 42
-1.057503801555148
 10
454.6741073024065
 20
421.2491073270541
 42
-0.8416702624690939
 10
454.4667713484663
 20
421.2850224210867
 42
-0.3537867126187971
 10
454.5045344864497
 20
421.3782740150147
 42
-0.6158366244434501
 10
454.3342338310208
 20
421.4641030474829
 42
-0.670677361107749
 10
454.4312593863668
 20
421.5758833132459
 42
-0.4399404662570238
 10
454.3151993794959
 20
421.6822577850851
 42
-1.169949891912311
 10
454.4746300673673
 20
421.7803169746294
 42
-0.2762290304573035
 10
454.4183643025458
 20
421.8743920750892
 42
-1.314215494131685
 97
       19
330
7DA
330
7E4
330
7E5
330
7E7
330
7F4
330
7F6
330
7F0
330
7F1
330
7EE
330
7EF
330
7EC
330
7EA
330
7EB
330
7E0
330
7E1
330
7DE
330
7DF
330
7D9
330
7F8
 92
        6
 72
     1
 73
     1
 93
       18
 10
454.7919069964375
 20
421.9873464471436
 42
-0.551486814173811
 10
454.7116781759044
 20
421.8783918411018
 42
-0.5222104356412211
 10
454.8446886440633
 20
421.7642804464089
 42
-0.9728811824597245
 10
455.0045515894929
 20
421.7598847297465
 42
-0.5973732254202396
 10
454.9605225878369
 20
421.6260721892576
 42
-0.4933793183416144
 10
455.061276059256
 20
421.5488215415096
 42
-1.137354581126306
 10
454.8903081123292
 20
421.4865415888775
 42
-1.033514554098419
 10
454.7897341226719
 20
421.2900733599676
 42
-0.3877211539024667
 10
454.862433698818
 20
421.2104145433839
 42
-1.0
 10
454.7024498853229
 20
421.2104145433839
 42
-0.6051726255354177
 10
454.7924636322171
 20
421.3198895479745
 42
-0.3877211539024657
 10
454.6954193145134
 20
421.4262235311178
 42
-0.2579301763525673
 10
454.7113423391529
 20
421.5019488289251
 42
-0.7014427717676798
 10
454.5225395851116
 20
421.5703133886688
 42
-1.127985968628443
 10
454.6711096256831
 20
421.6727466500676
 42
-0.3048014285596321
 10
454.6046673797495
 20
421.7716134790805
 42
-1.080663294676794
 10
454.7117411535772
 20
421.9073547295015
 42
-0.4135768319016251
 10
454.6319231829424
 20
421.9873464471436
 42
-1.0
 97
       10
330
7DB
330
7F2
330
7F5
330
7F7
330
7E8
330
7ED
330
7E9
330
7DC
330
7DD
330
7F3
 92
        6
 72
     1
 73
     1
 93
        2
 10
454.7868912831511
 20
420.499891252746
 42
1.0
 10
454.626907469656
 20
420.499891252746
 42
1.0
 97
        1
330
78C
 92
        6
 72
     1
 73
     1
 93
        3
 10
454.6955635079068
 20
420.761188534668
 42
-0.4914823988026125
 10
454.6601058297341
 20
420.5958706072676
 42
-0.439184222682315
 10
454.8064854929535
 20
420.5384175800402
 42
0.123251669045452
 97
        3
330
78F
330
78B
330
781
 92
        6
 72
     1
 73
     1
 93
       20
 10
454.1145183214882
 20
420.7767530078831
 42
-0.985978401259304
 10
454.3255495841851
 20
420.825526617576
 42
-0.9732944738322519
 10
454.538950414196
 20
420.819749451002
 42
-0.2658391499474094
 10
454.5460834986366
 20
420.7406248499774
 42
-0.7346780680227046
 10
454.6917731519282
 20
420.6949903099427
 42
-1.138989080311864
 10
454.5152432583952
 20
420.6498100238645
 42
-0.4840404473177914
 10
454.4475424735197
 20
420.4966048286953
 42
-0.7122424786760078
 10
454.5663316802626
 20
420.3334406208519
 42
-0.7440449579056795
 10
454.762257908532
 20
420.2746666856853
 42
-1.367423234171507
 10
454.5651962978102
 20
420.1796661479191
 42
-0.2055365636027232
 10
454.5984172883429
 20
420.1022649304375
 42
-1.369238938945232
 10
454.3807153393217
 20
420.0779457631254
 42
-1.057503801555148
 10
454.1680795659856
 20
420.0937712179477
 42
-0.8416702624690939
 10
453.9607436120454
 20
420.1296863119803
 42
-0.3537867126187971
 10
453.9985067500288
 20
420.2229379059083
 42
-0.6158366244434501
 10
453.8282060945999
 20
420.3087669383765
 42
-0.670677361107749
 10
453.9252316499458
 20
420.4205472041394
 42
-0.4399404662570238
 10
453.8091716430749
 20
420.5269216759786
 42
-1.169949891912311
 10
453.9686023309464
 20
420.6249808655229
 42
-0.2762290304573035
 10
453.9123365661248
 20
420.7190559659827
 42
-1.314215494131685
 97
       19
330
783
330
78D
330
78E
330
790
330
79D
330
79F
330
799
330
79A
330
797
330
798
330
795
330
793
330
794
330
789
330
78A
330
787
330
788
330
782
330
7B6
 92
        6
 72
     1
 73
     1
 93
        2
 10
452.7175653881688
 20
418.4358988189342
 42
-1.0
 10
451.6926747309057
 20
418.4358988189342
 42
-1.0
 97
        1
330
77A
 92
        6
 72
     1
 73
     1
 93
       18
 10
454.2858792600166
 20
420.8320103380372
 42
-0.551486814173811
 10
454.2056504394834
 20
420.7230557319953
 42
-0.5222104356412211
 10
454.3386609076423
 20
420.6089443373025
 42
-0.9728811824597245
 10
454.498523853072
 20
420.60454862064
 42
-0.5973732254202396
 10
454.4544948514158
 20
420.4707360801512
 42
-0.4933793183416144
 10
454.5552483228351
 20
420.3934854324031
 42
-1.137354581126306
 10
454.3842803759083
 20
420.3312054797711
 42
-1.033514554098419
 10
454.2837063862509
 20
420.1347372508612
 42
-0.3877211539024667
 10
454.3564059623971
 20
420.0550784342774
 42
-1.0
 10
454.1964221489019
 20
420.0550784342774
 42
-0.6051726255354177
 10
454.2864358957961
 20
420.164553438868
 42
-0.3877211539024657
 10
454.1893915780924
 20
420.2708874220113
 42
-0.2579301763525673
 10
454.205314602732
 20
420.3466127198187
 42
-0.7014427717676798
 10
454.0165118486907
 20
420.4149772795624
 42
-1.127985968628443
 10
454.1650818892621
 20
420.5174105409612
 42
-0.3048014285596321
 10
454.0986396433286
 20
420.6162773699741
 42
-1.080663294676794
 10
454.2057134171563
 20
420.7520186203951
 42
-0.4135768319016251
 10
454.1258954465215
 20
420.8320103380372
 42
-1.0
 97
       10
330
784
330
79B
330
79E
330
7A0
330
791
330
796
330
792
330
785
330
786
330
79C
 92
        6
 72
     1
 73
     1
 93
        2
 10
454.8275762956512
 20
419.2833593079974
 42
1.0
 10
454.6675924821561
 20
419.2833593079974
 42
1.0
 97
        1
330
7C2
 92
        6
 72
     1
 73
     1
 93
        3
 10
454.7362485204068
 20
419.5446565899194
 42
-0.4914823988026125
 10
454.7007908422342
 20
419.379338662519
 42
-0.4391842226800826
 10
454.8471705054534
 20
419.3218856352926
 42
0.1232516690449435
 97
        3
330
7C5
330
7C1
330
7B7
 92
        6
 72
     1
 73
     1
 93
       20
 10
454.1552033339883
 20
419.5602210631346
 42
-0.985978401259304
 10
454.3662345966851
 20
419.6089946728275
 42
-0.9732944738322519
 10
454.579635426696
 20
419.6032175062534
 42
-0.2658391499474094
 10
454.5867685111367
 20
419.5240929052288
 42
-0.7346780680227046
 10
454.7324581644282
 20
419.4784583651942
 42
-1.138989080311864
 10
454.5559282708953
 20
419.4332780791159
 42
-0.4840404473177914
 10
454.4882274860198
 20
419.2800728839467
 42
-0.7122424786760078
 10
454.6070166927626
 20
419.1169086761033
 42
-0.7440449579056795
 10
454.8029429210321
 20
419.0581347409367
 42
-1.367423234171507
 10
454.6058813103103
 20
418.9631342031705
 42
-0.2055365636027232
 10
454.6391023008429
 20
418.8857329856889
 42
-1.369238938945232
 10
454.4214003518217
 20
418.8614138183768
 42
-1.057503801555148
 10
454.2087645784857
 20
418.8772392731991
 42
-0.8416702624690939
 10
454.0014286245455
 20
418.9131543672317
 42
-0.3537867126187971
 10
454.0391917625288
 20
419.0064059611597
 42
-0.6158366244434501
 10
453.8688911070998
 20
419.0922349936279
 42
-0.670677361107749
 10
453.9659166624458
 20
419.2040152593908
 42
-0.4399404662570238
 10
453.8498566555749
 20
419.31038973123
 42
-1.169949891912311
 10
454.0092873434464
 20
419.4084489207743
 42
-0.2762290304573035
 10
453.9530215786249
 20
419.5025240212341
 42
-1.314215494131685
 97
       19
330
7B9
330
7C3
330
7C4
330
7C6
330
7D3
330
7D5
330
7CF
330
7D0
330
7CD
330
7CE
330
7CB
330
7C9
330
7CA
330
7BF
330
7C0
330
7BD
330
7BE
330
7B8
330
7D7
 92
        6
 72
     1
 73
     1
 93
        2
 10
453.9854777264702
 20
418.4039203070549
 42
1.0
 10
453.8254939129751
 20
418.4039203070549
 42
1.0
 97
        1
330
804
 92
        6
 72
     1
 73
     1
 93
        3
 10
453.8941499512259
 20
418.6652175889769
 42
-0.4914823988026125
 10
453.8586922730533
 20
418.4998996615766
 42
-0.4391842226805703
 10
454.0050719362724
 20
418.4424466343498
 42
0.1232516690450547
 97
        3
330
807
330
803
330
7F9
 92
        6
 72
     1
 73
     1
 93
       18
 10
454.3265642725167
 20
419.6154783932886
 42
-0.551486814173811
 10
454.2463354519835
 20
419.5065237872467
 42
-0.5222104356412211
 10
454.3793459201424
 20
419.392412392554
 42
-0.9728811824597245
 10
454.5392088655719
 20
419.3880166758915
 42
-0.5973732254202396
 10
454.4951798639159
 20
419.2542041354027
 42
-0.4933793183416144
 10
454.5959333353351
 20
419.1769534876546
 42
-1.137354581126306
 10
454.4249653884082
 20
419.1146735350225
 42
-1.033514554098419
 10
454.324391398751
 20
418.9182053061126
 42
-0.3877211539024667
 10
454.3970909748971
 20
418.8385464895288
 42
-1.0
 10
454.2371071614019
 20
418.8385464895288
 42
-0.6051726255354177
 10
454.3271209082962
 20
418.9480214941195
 42
-0.3877211539024657
 10
454.2300765905925
 20
419.0543554772627
 42
-0.2579301763525673
 10
454.245999615232
 20
419.1300807750701
 42
-0.7014427717676798
 10
454.0571968611907
 20
419.1984453348139
 42
-1.127985968628443
 10
454.2057669017621
 20
419.3008785962126
 42
-0.3048014285596321
 10
454.1393246558286
 20
419.3997454252255
 42
-1.080663294676794
 10
454.2463984296563
 20
419.5354866756465
 42
-0.4135768319016251
 10
454.1665804590215
 20
419.6154783932886
 42
-1.0
 97
       10
330
7BA
330
7D1
330
7D4
330
7D6
330
7C7
330
7CC
330
7C8
330
7BB
330
7BC
330
7D2
 92
        6
 72
     1
 73
     1
 93
       20
 10
453.3131047648073
 20
418.680782062192
 42
-0.985978401259304
 10
453.5241360275041
 20
418.729555671885
 42
-0.9732944738322519
 10
453.7375368575151
 20
418.723778505311
 42
-0.2658391499474094
 10
453.7446699419557
 20
418.6446539042862
 42
-0.7346780680227046
 10
453.8903595952472
 20
418.5990193642517
 42
-1.138989080311864
 10
453.7138297017142
 20
418.5538390781735
 42
-0.4840404473177914
 10
453.6461289168388
 20
418.4006338830043
 42
-0.7122424786760078
 10
453.7649181235816
 20
418.2374696751607
 42
-0.7440449579056795
 10
453.9608443518512
 20
418.1786957399943
 42
-1.367423234171507
 10
453.7637827411294
 20
418.0836952022279
 42
-0.2055365636027232
 10
453.797003731662
 20
418.0062939847464
 42
-1.369238938945232
 10
453.5793017826407
 20
417.9819748174343
 42
-1.057503801555148
 10
453.3666660093047
 20
417.9978002722566
 42
-0.8416702624690939
 10
453.1593300553645
 20
418.0337153662892
 42
-0.3537867126187971
 10
453.1970931933479
 20
418.1269669602172
 42
-0.6158366244434501
 10
453.0267925379189
 20
418.2127959926853
 42
-0.670677361107749
 10
453.1238180932649
 20
418.3245762584483
 42
-0.4399404662570238
 10
453.007758086394
 20
418.4309507302875
 42
-1.169949891912311
 10
453.1671887742654
 20
418.5290099198319
 42
-0.2762290304573035
 10
453.1109230094439
 20
418.6230850202917
 42
-1.314215494131685
 97
       19
330
7FB
330
805
330
806
330
808
330
815
330
817
330
811
330
812
330
80F
330
810
330
80D
330
80B
330
80C
330
801
330
802
330
7FF
330
800
330
7FA
330
819
 92
        6
 72
     1
 73
     1
 93
       18
 10
453.4844657033357
 20
418.736039392346
 42
-0.551486814173811
 10
453.4042368828026
 20
418.6270847863043
 42
-0.5222104356412211
 10
453.5372473509615
 20
418.5129733916114
 42
-0.9728811824597245
 10
453.697110296391
 20
418.508577674949
 42
-0.5973732254202396
 10
453.653081294735
 20
418.3747651344601
 42
-0.4933793183416144
 10
453.7538347661541
 20
418.297514486712
 42
-1.137354581126306
 10
453.5828668192273
 20
418.2352345340801
 42
-1.033514554098419
 10
453.48229282957
 20
418.0387663051702
 42
-0.3877211539024667
 10
453.5549924057161
 20
417.9591074885864
 42
-1.0
 10
453.395008592221
 20
417.9591074885864
 42
-0.6051726255354177
 10
453.4850223391152
 20
418.068582493177
 42
-0.3877211539024657
 10
453.3879780214115
 20
418.1749164763203
 42
-0.2579301763525673
 10
453.403901046051
 20
418.2506417741276
 42
-0.7014427717676798
 10
453.2150982920097
 20
418.3190063338713
 42
-1.127985968628443
 10
453.3636683325812
 20
418.4214395952701
 42
-0.3048014285596321
 10
453.2972260866476
 20
418.520306424283
 42
-1.080663294676794
 10
453.4042998604753
 20
418.656047674704
 42
-0.4135768319016251
 10
453.3244818898405
 20
418.736039392346
 42
-1.0
 97
       10
330
7FC
330
813
330
816
330
818
330
809
330
80E
330
80A
330
7FD
330
7FE
330
814
 92
       22
 72
     1
 73
     1
 93
        2
 10
462.1941048359366
 20
432.5762520211323
 42
-1.0
 10
460.3931277502637
 20
432.5762520211323
 42
-1.0
 97
        1
330
7B0
 92
        6
 72
     1
 73
     1
 93
        2
 10
462.0650916797613
 20
432.5762520211323
 42
-1.0
 10
460.522140906439
 20
432.5762520211323
 42
-1.0
 97
        1
330
7B2
 75
     1
 76
     1
 52
0.0
 41
1.0
 77
     0
 78
     4
 53
37.5
 43
-30.40652613316365
 44
-920.8328902949515
 45
-0.0629933581096082
 46
1.926823769013158
 79
     6
 49
0.0
 49
-1.52
 49
0.0
 49
-1.7
 49
0.0
 49
-1.625
 53
7.499999999999999
 43
-30.40652613316365
 44
-920.8328902949515
 45
1.769776705267727
 46
2.82214606522974
 79
     6
 49
0.0
 49
-0.8199999999999999
 49
0.0
 49
-1.37
 49
0.0
 49
-0.525
 53
327.5
 43
-31.63652613316367
 44
-920.8328902949515
 45
3.114141861751495
 46
0.0056590535369649
 79
     6
 49
0.0
 49
-0.5
 49
0.0
 49
-1.8
 49
0.0
 49
-2.35
 53
317.5
 43
-31.63652613316367
 44
-920.8328902949515
 45
3.006126604572293
 46
0.8776755649342494
 79
     6
 49
0.0
 49
-0.25
 49
0.0
 49
-1.179999999999999
 49
0.0
 49
-1.35
 47
0.141243588032397
 98
       43
 10
440.2579910293122
 20
433.7036808999641
 10
440.2579910293122
 20
433.7036808999641
 10
440.2579910293122
 20
433.7036808999641
 10
440.2579910293122
 20
433.7036808999641
 10
440.2579910293122
 20
433.7036808999641
 10
440.2579910293122
 20
433.7036808999641
 10
440.2579910293122
 20
433.7036808999641
 10
440.2579910293122
 20
433.7036808999641
 10
440.2579910293122
 20
433.7036808999641
 10
440.2579910293122
 20
433.7036808999641
 10
440.2579910293122
 20
433.7036808999641
 10
440.2579910293122
 20
433.7036808999641
 10
440.2579910293122
 20
433.7036808999641
 10
440.2579910293122
 20
433.7036808999641
 10
440.2579910293122
 20
433.7036808999641
 10
440.2579910293122
 20
433.7036808999641
 10
440.2579910293122
 20
433.7036808999641
 10
440.2579910293122
 20
433.7036808999641
 10
440.2579910293122
 20
433.7036808999641
 10
440.2579910293122
 20
433.7036808999641
 10
440.2579910293122
 20
433.7036808999641
 10
440.2579910293122
 20
433.7036808999641
 10
440.2579910293122
 20
433.7036808999641
 10
440.2579910293122
 20
433.7036808999641
 10
440.2579910293122
 20
433.7036808999641
 10
440.2579910293122
 20
433.7036808999641
 10
440.2579910293122
 20
433.7036808999641
 10
440.2579910293122
 20
433.7036808999641
 10
440.2579910293122
 20
433.7036808999641
 10
440.2579910293122
 20
433.7036808999641
 10
440.2579910293122
 20
433.7036808999641
 10
440.2579910293122
 20
433.7036808999641
 10
440.2579910293122
 20
433.7036808999641
 10
440.2579910293122
 20
433.7036808999641
 10
440.2579910293122
 20
433.7036808999641
 10
440.2579910293122
 20
433.7036808999641
 10
440.2579910293122
 20
433.7036808999641
 10
440.2579910293122
 20
433.7036808999641
 10
440.2579910293122
 20
433.7036808999641
 10
440.2579910293122
 20
433.7036808999641
 10
440.2579910293122
 20
433.7036808999641
 10
440.2579910293122
 20
433.7036808999641
 10
440.2579910293122
 20
433.7036808999641
1001
GradientColor1ACI
1070
     5
1001
GradientColor2ACI
1070
     2
1001
ACAD
1010
0.0
1020
0.0
1030
0.0
  0
CIRCLE
  5
762
102
{ACAD_REACTORS
330
761
102
}
330
1F
100
AcDbEntity
  8
防火材
  6
Continuous
370
    13
100
AcDbCircle
 10
452.6670917739933
 20
420.5572832230505
 30
0.0
 40
4.884049583340454
  0
CIRCLE
  5
763
102
{ACAD_REACTORS
330
761
102
}
330
1F
100
AcDbEntity
  8
防火材
  6
Continuous
370
    13
100
AcDbCircle
 10
452.6670917739933
 20
420.5572832230505
 30
0.0
 40
4.141572883691176
  0
CIRCLE
  5
764
102
{ACAD_REACTORS
330
761
102
}
330
1F
100
AcDbEntity
  8
防火材
  6
Continuous
370
    13
100
AcDbCircle
 10
451.5136068466528
 20
420.9041482030265
 30
0.0
 40
0.900488542836536
  0
HATCH
  5
765
330
1F
100
AcDbEntity
  8
防火材
  6
Continuous
370
    13
100
AcDbHatch
 10
0.0
 20
0.0
 30
0.0
210
0.0
220
0.0
230
1.0
  2
HONEY
 70
     0
 71
     1
 91
        1
 92
        7
 72
     1
 73
     1
 93
        2
 10
452.285082233314
 20
420.9041482030265
 42
1.0
 10
450.7421314599915
 20
420.9041482030265
 42
1.0
 97
        1
330
766
 75
     1
 76
     1
 52
0.0
 41
1.599999999999999
 77
     0
 78
     3
 53
0.0
 43
-970.3996137447836
 44
-1234.176446934553
 45
0.3
 46
0.1732050807568877
 79
     2
 49
0.2
 49
-0.4
 53
120.0
 43
-970.3996137447836
 44
-1234.176446934553
 45
-0.2999999999999999
 46
0.1732050807568878
 79
     2
 49
0.1999999999999997
 49
-0.3999999999999995
 53
60.0
 43
-970.3996137447836
 44
-1234.176446934553
 45
0.0000000000000001
 46
0.3464101615137754
 79
     2
 49
-0.4
 49
0.2
 47
0.0049125579128181
 98
        1
 10
451.6986489612953
 20
420.8712291867591
1001
GradientColor1ACI
1070
     5
1001
GradientColor2ACI
1070
     2
1001
ACAD
1010
0.0
1020
0.0
1030
0.0
  0
CIRCLE
  5
766
102
{ACAD_REACTORS
330
765
330
761
102
}
330
1F
100
AcDbEntity
  8
防火材
  6
Continuous
370
    13
100
AcDbCircle
 10
451.5136068466528
 20
420.9041482030265
 30
0.0
 40
0.7714753866611869
  0
CIRCLE
  5
767
102
{ACAD_REACTORS
330
761
102
}
330
1F
100
AcDbEntity
  8
防火材
  6
Continuous
370
    13
100
AcDbCircle
 10
448.3079423977291
 20
428.8994281249213
 30
0.0
 40
4.437084301176343
  0
CIRCLE
  5
768
102
{ACAD_REACTORS
330
761
102
}
330
1F
100
AcDbEntity
  8
防火材
  6
Continuous
370
    13
100
AcDbCircle
 10
448.3079423977291
 20
428.8994281249213
 30
0.0
 40
3.588986142802269
  0
HATCH
  5
769
330
1F
100
AcDbEntity
  8
防火材
  6
Continuous
370
    13
100
AcDbHatch
 10
0.0
 20
0.0
 30
0.0
210
0.0
220
0.0
230
1.0
  2
HONEY
 70
     0
 71
     1
 91
        1
 92
        7
 72
     1
 73
     1
 93
        2
 10
450.7772517374964
 20
428.8994281249213
 42
1.0
 10
445.8386330579618
 20
428.8994281249213
 42
1.0
 97
        1
330
76A
 75
     1
 76
     1
 52
0.0
 41
2.0
 77
     0
 78
     3
 53
0.0
 43
-970.3996137447836
 44
-1234.176446934553
 45
0.375
 46
0.2165063509461096
 79
     2
 49
0.25
 49
-0.5
 53
120.0
 43
-970.3996137447836
 44
-1234.176446934553
 45
-0.3749999999999999
 46
0.2165063509461097
 79
     2
 49
0.2499999999999997
 49
-0.4999999999999995
 53
60.0
 43
-970.3996137447836
 44
-1234.176446934553
 45
0.0000000000000001
 46
0.4330127018922194
 79
     2
 49
-0.5
 49
0.25
 47
0.0508716814713544
 98
        1
 10
448.4869832288626
 20
428.6846228858044
1001
GradientColor1ACI
1070
     5
1001
GradientColor2ACI
1070
     2
1001
ACAD
1010
0.0
1020
0.0
1030
0.0
  0
CIRCLE
  5
76A
102
{ACAD_REACTORS
330
769
102
}
330
1F
100
AcDbEntity
  8
防火材
  6
Continuous
370
    13
100
AcDbCircle
 10
448.3079423977291
 20
428.8994281249213
 30
0.0
 40
2.469309339767306
  0
CIRCLE
  5
76B
102
{ACAD_REACTORS
330
761
102
}
330
1F
100
AcDbEntity
  8
防火材
  6
Continuous
370
    13
100
AcDbCircle
 10
457.1821110000818
 20
428.8994281249213
 30
0.0
 40
4.437084301176343
  0
CIRCLE
  5
76C
102
{ACAD_REACTORS
330
761
102
}
330
1F
100
AcDbEntity
  8
防火材
  6
Continuous
370
    13
100
AcDbCircle
 10
457.1821110000818
 20
428.8994281249213
 30
0.0
 40
3.588986142802269
  0
HATCH
  5
76D
330
1F
100
AcDbEntity
  8
防火材
  6
Continuous
370
    13
100
AcDbHatch
 10
0.0
 20
0.0
 30
0.0
210
0.0
220
0.0
230
1.0
  2
HONEY
 70
     0
 71
     1
 91
        1
 92
        7
 72
     1
 73
     1
 93
        2
 10
459.651420339849
 20
428.8994281249213
 42
1.0
 10
454.7128016603145
 20
428.8994281249213
 42
1.0
 97
        1
330
76E
 75
     1
 76
     1
 52
0.0
 41
2.0
 77
     0
 78
     3
 53
0.0
 43
-970.3996137447836
 44
-1234.176446934553
 45
0.375
 46
0.2165063509461096
 79
     2
 49
0.25
 49
-0.5
 53
120.0
 43
-970.3996137447836
 44
-1234.176446934553
 45
-0.3749999999999999
 46
0.2165063509461097
 79
     2
 49
0.2499999999999997
 49
-0.4999999999999995
 53
60.0
 43
-970.3996137447836
 44
-1234.176446934553
 45
0.0000000000000001
 46
0.4330127018922194
 79
     2
 49
-0.5
 49
0.25
 47
0.0508716814713544
 98
        1
 10
457.3611518312153
 20
428.6846228858044
1001
GradientColor1ACI
1070
     5
1001
GradientColor2ACI
1070
     2
1001
ACAD
1010
0.0
1020
0.0
1030
0.0
  0
CIRCLE
  5
76E
102
{ACAD_REACTORS
330
76D
330
761
102
}
330
1F
100
AcDbEntity
  8
防火材
  6
Continuous
370
    13
100
AcDbCircle
 10
457.1821110000818
 20
428.8994281249213
 30
0.0
 40
2.469309339767306
  0
CIRCLE
  5
76F
102
{ACAD_REACTORS
330
761
102
}
330
1F
100
AcDbEntity
  8
防火材
  6
Continuous
370
    13
100
AcDbCircle
 10
452.6966019033678
 20
436.7454944509861
 30
0.0
 40
4.437084301176343
  0
CIRCLE
  5
770
102
{ACAD_REACTORS
330
761
102
}
330
1F
100
AcDbEntity
  8
防火材
  6
Continuous
370
    13
100
AcDbCircle
 10
452.6966019033678
 20
436.7454944509861
 30
0.0
 40
3.588986142802269
  0
HATCH
  5
771
330
1F
100
AcDbEntity
  8
防火材
  6
Continuous
370
    13
100
AcDbHatch
 10
0.0
 20
0.0
 30
0.0
210
0.0
220
0.0
230
1.0
  2
HONEY
 70
     0
 71
     1
 91
        1
 92
        7
 72
     1
 73
     1
 93
        2
 10
455.1659112431351
 20
436.7454944509861
 42
1.0
 10
450.2272925636005
 20
436.7454944509861
 42
1.0
 97
        1
330
772
 75
     1
 76
     1
 52
0.0
 41
2.0
 77
     0
 78
     3
 53
0.0
 43
-970.3996137447836
 44
-1234.176446934553
 45
0.375
 46
0.2165063509461096
 79
     2
 49
0.25
 49
-0.5
 53
120.0
 43
-970.3996137447836
 44
-1234.176446934553
 45
-0.3749999999999999
 46
0.2165063509461097
 79
     2
 49
0.2499999999999997
 49
-0.4999999999999995
 53
60.0
 43
-970.3996137447836
 44
-1234.176446934553
 45
0.0000000000000001
 46
0.4330127018922194
 79
     2
 49
-0.5
 49
0.25
 47
0.0508716814713544
 98
        1
 10
452.8756427345014
 20
436.5306892118692
1001
GradientColor1ACI
1070
     5
1001
GradientColor2ACI
1070
     2
1001
ACAD
1010
0.0
1020
0.0
1030
0.0
  0
CIRCLE
  5
772
102
{ACAD_REACTORS
330
771
330
761
102
}
330
1F
100
AcDbEntity
  8
防火材
  6
Continuous
370
    13
100
AcDbCircle
 10
452.6966019033678
 20
436.7454944509861
 30
0.0
 40
2.469309339767306
  0
CIRCLE
  5
773
102
{ACAD_REACTORS
330
761
102
}
330
1F
100
AcDbEntity
  8
防火材
  6
Continuous
370
    13
100
AcDbCircle
 10
451.9506537995288
 20
422.3537463543671
 30
0.0
 40
0.5981411140799759
  0
CIRCLE
  5
774
102
{ACAD_REACTORS
330
761
102
}
330
1F
100
AcDbEntity
  8
防火材
  6
Continuous
370
    13
100
AcDbCircle
 10
451.9506537995288
 20
422.3537463543671
 30
0.0
 40
0.5124453286315369
  0
CIRCLE
  5
775
102
{ACAD_REACTORS
330
761
102
}
330
1F
100
AcDbEntity
  8
防火材
  6
Continuous
370
    13
100
AcDbCircle
 10
450.3454451244646
 20
419.8959652116464
 30
0.0
 40
0.5981411140799759
  0
CIRCLE
  5
776
102
{ACAD_REACTORS
330
761
102
}
330
1F
100
AcDbEntity
  8
防火材
  6
Continuous
370
    13
100
AcDbCircle
 10
450.3454451244646
 20
419.8959652116464
 30
0.0
 40
0.5124453286315369
  0
CIRCLE
  5
777
102
{ACAD_REACTORS
330
761
102
}
330
1F
100
AcDbEntity
  8
防火材
  6
Continuous
370
    13
100
AcDbCircle
 10
453.0185496775624
 20
422.9886409317114
 30
0.0
 40
0.5981411140799759
  0
CIRCLE
  5
778
102
{ACAD_REACTORS
330
761
102
}
330
1F
100
AcDbEntity
  8
防火材
  6
Continuous
370
    13
100
AcDbCircle
 10
453.0185496775624
 20
422.9886409317114
 30
0.0
 40
0.5124453286315369
  0
CIRCLE
  5
779
102
{ACAD_REACTORS
330
761
102
}
330
1F
100
AcDbEntity
  8
防火材
  6
Continuous
370
    13
100
AcDbCircle
 10
452.2051200595373
 20
418.4358988189342
 30
0.0
 40
0.5981411140799759
  0
CIRCLE
  5
77A
102
{ACAD_REACTORS
330
761
102
}
330
1F
100
AcDbEntity
  8
防火材
  6
Continuous
370
    13
100
AcDbCircle
 10
452.2051200595373
 20
418.4358988189342
 30
0.0
 40
0.5124453286315369
  0
CIRCLE
  5
77B
102
{ACAD_REACTORS
330
761
102
}
330
1F
100
AcDbEntity
  8
防火材
  6
Continuous
370
    13
100
AcDbCircle
 10
451.4458168439626
 20
419.3923457472156
 30
0.0
 40
0.5981411140799759
  0
CIRCLE
  5
77C
102
{ACAD_REACTORS
330
761
102
}
330
1F
100
AcDbEntity
  8
防火材
  6
Continuous
370
    13
100
AcDbCircle
 10
451.4458168439626
 20
419.3923457472156
 30
0.0
 40
0.5124453286315369
  0
CIRCLE
  5
77D
102
{ACAD_REACTORS
330
761
102
}
330
1F
100
AcDbEntity
  8
防火材
  6
Continuous
370
    13
100
AcDbCircle
 10
454.3424093127426
 20
419.2334754935127
 30
0.0
 40
0.5981411140799759
  0
CIRCLE
  5
77E
102
{ACAD_REACTORS
330
761
102
}
330
1F
100
AcDbEntity
  8
防火材
  6
Continuous
370
    13
100
AcDbCircle
 10
454.8077520366636
 20
421.6053435473677
 30
0.0
 40
0.5981411140799759
  0
CIRCLE
  5
77F
102
{ACAD_REACTORS
330
761
102
}
330
1F
100
AcDbEntity
  8
防火材
  6
Continuous
370
    13
100
AcDbCircle
 10
453.5003107435617
 20
418.3540364925702
 30
0.0
 40
0.5981411140799759
  0
CIRCLE
  5
780
102
{ACAD_REACTORS
330
761
102
}
330
1F
100
AcDbEntity
  8
防火材
  6
Continuous
370
    13
100
AcDbCircle
 10
454.3017243002426
 20
420.4500074382613
 30
0.0
 40
0.5981411140799759
  0
CIRCLE
  5
781
102
{ACAD_REACTORS
330
761
102
}
330
1F
100
AcDbEntity
  8
防火材
  6
Continuous
370
    13
100
AcDbCircle
 10
454.3017243002426
 20
420.4500074382613
 30
0.0
 40
0.5124453286315369
  0
CIRCLE
  5
782
102
{ACAD_REACTORS
330
761
102
}
330
1F
100
AcDbEntity
  8
防火材
  6
Continuous
370
    13
100
AcDbCircle
 10
454.0191151805769
 20
420.7190559659827
 30
0.0
 40
0.106778614452082
  0
CIRCLE
  5
783
102
{ACAD_REACTORS
330
761
102
}
330
1F
100
AcDbEntity
  8
防火材
  6
Continuous
370
    13
100
AcDbCircle
 10
454.205887353269
 20
420.8320103380372
 30
0.0
 40
0.106778614452082
  0
CIRCLE
  5
784
102
{ACAD_REACTORS
330
761
102
}
330
1F
100
AcDbEntity
  8
防火材
  6
Continuous
370
    13
100
AcDbCircle
 10
454.205887353269
 20
420.8320103380372
 30
0.0
 40
0.0799919067475871
  0
CIRCLE
  5
785
102
{ACAD_REACTORS
330
761
102
}
330
1F
100
AcDbEntity
  8
防火材
  6
Continuous
370
    13
100
AcDbCircle
 10
454.1232904631427
 20
420.4149772795624
 30
0.0
 40
0.106778614452082
  0
CIRCLE
  5
786
102
{ACAD_REACTORS
330
761
102
}
330
1F
100
AcDbEntity
  8
防火材
  6
Continuous
370
    13
100
AcDbCircle
 10
454.1232904631427
 20
420.4149772795624
 30
0.0
 40
0.0799919067475871
  0
CIRCLE
  5
787
102
{ACAD_REACTORS
330
761
102
}
330
1F
100
AcDbEntity
  8
防火材
  6
Continuous
370
    13
100
AcDbCircle
 10
453.915950257527
 20
420.5269216759786
 30
0.0
 40
0.106778614452082
  0
CIRCLE
  5
788
102
{ACAD_REACTORS
330
761
102
}
330
1F
100
AcDbEntity
  8
防火材
  6
Continuous
370
    13
100
AcDbCircle
 10
453.915950257527
 20
420.5269216759786
 30
0.0
 40
0.0799919067475871
  0
CIRCLE
  5
789
102
{ACAD_REACTORS
330
761
102
}
330
1F
100
AcDbEntity
  8
防火材
  6
Continuous
370
    13
100
AcDbCircle
 10
453.9349847090519
 20
420.3087669383765
 30
0.0
 40
0.106778614452082
  0
CIRCLE
  5
78A
102
{ACAD_REACTORS
330
761
102
}
330
1F
100
AcDbEntity
  8
防火材
  6
Continuous
370
    13
100
AcDbCircle
 10
453.9349847090519
 20
420.3087669383765
 30
0.0
 40
0.0799919067475871
  0
CIRCLE
  5
78B
102
{ACAD_REACTORS
330
761
102
}
330
1F
100
AcDbEntity
  8
防火材
  6
Continuous
370
    13
100
AcDbCircle
 10
454.7068993764035
 20
420.499891252746
 30
0.0
 40
0.106778614452082
  0
CIRCLE
  5
78C
102
{ACAD_REACTORS
330
761
102
}
330
1F
100
AcDbEntity
  8
防火材
  6
Continuous
370
    13
100
AcDbCircle
 10
454.7068993764035
 20
420.499891252746
 30
0.0
 40
0.0799919067475871
  0
CIRCLE
  5
78D
102
{ACAD_REACTORS
330
761
102
}
330
1F
100
AcDbEntity
  8
防火材
  6
Continuous
370
    13
100
AcDbCircle
 10
454.432171799744
 20
420.819749451002
 30
0.0
 40
0.106778614452082
  0
CIRCLE
  5
78E
102
{ACAD_REACTORS
330
761
102
}
330
1F
100
AcDbEntity
  8
防火材
  6
Continuous
370
    13
100
AcDbCircle
 10
454.432171799744
 20
420.819749451002
 30
0.0
 40
0.0799919067475871
  0
CIRCLE
  5
78F
102
{ACAD_REACTORS
330
761
102
}
330
1F
100
AcDbEntity
  8
防火材
  6
Continuous
370
    13
100
AcDbCircle
 10
454.6117812451806
 20
420.6949903099427
 30
0.0
 40
0.106778614452082
  0
CIRCLE
  5
790
102
{ACAD_REACTORS
330
761
102
}
330
1F
100
AcDbEntity
  8
防火材
  6
Continuous
370
    13
100
AcDbCircle
 10
454.6117812451806
 20
420.6949903099427
 30
0.0
 40
0.0799919067475871
  0
CIRCLE
  5
791
102
{ACAD_REACTORS
330
761
102
}
330
1F
100
AcDbEntity
  8
防火材
  6
Continuous
370
    13
100
AcDbCircle
 10
454.2961701925445
 20
420.2708874220113
 30
0.0
 40
0.106778614452082
  0
CIRCLE
  5
792
102
{ACAD_REACTORS
330
761
102
}
330
1F
100
AcDbEntity
  8
防火材
  6
Continuous
370
    13
100
AcDbCircle
 10
454.2961701925445
 20
420.2708874220113
 30
0.0
 40
0.0799919067475871
  0
CIRCLE
  5
793
102
{ACAD_REACTORS
330
761
102
}
330
1F
100
AcDbEntity
  8
防火材
  6
Continuous
370
    13
100
AcDbCircle
 10
454.0675222264975
 20
420.1296863119803
 30
0.0
 40
0.106778614452082
  0
CIRCLE
  5
794
102
{ACAD_REACTORS
330
761
102
}
330
1F
100
AcDbEntity
  8
防火材
  6
Continuous
370
    13
100
AcDbCircle
 10
454.0675222264975
 20
420.1296863119803
 30
0.0
 40
0.0799919067475871
  0
CIRCLE
  5
795
102
{ACAD_REACTORS
330
761
102
}
330
1F
100
AcDbEntity
  8
防火材
  6
Continuous
370
    13
100
AcDbCircle
 10
454.2764140556495
 20
420.0550784342774
 30
0.0
 40
0.106778614452082
  0
CIRCLE
  5
796
102
{ACAD_REACTORS
330
761
102
}
330
1F
100
AcDbEntity
  8
防火材
  6
Continuous
370
    13
100
AcDbCircle
 10
454.2764140556495
 20
420.0550784342774
 30
0.0
 40
0.0799919067475871
  0
CIRCLE
  5
797
102
{ACAD_REACTORS
330
761
102
}
330
1F
100
AcDbEntity
  8
防火材
  6
Continuous
370
    13
100
AcDbCircle
 10
454.4916386738909
 20
420.1022649304375
 30
0.0
 40
0.106778614452082
  0
CIRCLE
  5
798
102
{ACAD_REACTORS
330
761
102
}
330
1F
100
AcDbEntity
  8
防火材
  6
Continuous
370
    13
100
AcDbCircle
 10
454.4916386738909
 20
420.1022649304375
 30
0.0
 40
0.0799919067475871
  0
CIRCLE
  5
799
102
{ACAD_REACTORS
330
761
102
}
330
1F
100
AcDbEntity
  8
防火材
  6
Continuous
370
    13
100
AcDbCircle
 10
454.65547929408
 20
420.2746666856853
 30
0.0
 40
0.106778614452082
  0
CIRCLE
  5
79A
102
{ACAD_REACTORS
330
761
102
}
330
1F
100
AcDbEntity
  8
防火材
  6
Continuous
370
    13
100
AcDbCircle
 10
454.65547929408
 20
420.2746666856853
 30
0.0
 40
0.0799919067475871
  0
CIRCLE
  5
79B
102
{ACAD_REACTORS
330
761
102
}
330
1F
100
AcDbEntity
  8
防火材
  6
Continuous
370
    13
100
AcDbCircle
 10
454.2054182577807
 20
420.6162773699741
 30
0.0
 40
0.106778614452082
  0
CIRCLE
  5
79C
102
{ACAD_REACTORS
330
761
102
}
330
1F
100
AcDbEntity
  8
防火材
  6
Continuous
370
    13
100
AcDbCircle
 10
454.2054182577807
 20
420.6162773699741
 30
0.0
 40
0.0799919067475871
  0
CIRCLE
  5
79D
102
{ACAD_REACTORS
330
761
102
}
330
1F
100
AcDbEntity
  8
防火材
  6
Continuous
370
    13
100
AcDbCircle
 10
454.4185319463243
 20
420.60454862064
 30
0.0
 40
0.106778614452082
  0
CIRCLE
  5
79E
102
{ACAD_REACTORS
330
761
102
}
330
1F
100
AcDbEntity
  8
防火材
  6
Continuous
370
    13
100
AcDbCircle
 10
454.4185319463243
 20
420.60454862064
 30
0.0
 40
0.0799919067475871
  0
CIRCLE
  5
79F
102
{ACAD_REACTORS
330
761
102
}
330
1F
100
AcDbEntity
  8
防火材
  6
Continuous
370
    13
100
AcDbCircle
 10
454.4752564160875
 20
420.3934854324031
 30
0.0
 40
0.106778614452082
  0
CIRCLE
  5
7A0
102
{ACAD_REACTORS
330
761
102
}
330
1F
100
AcDbEntity
  8
防火材
  6
Continuous
370
    13
100
AcDbCircle
 10
454.4752564160875
 20
420.3934854324031
 30
0.0
 40
0.0799919067475871
  0
CIRCLE
  5
7A1
102
{ACAD_REACTORS
330
761
102
}
330
1F
100
AcDbEntity
  8
防火材
  6
Continuous
370
    13
100
AcDbCircle
 10
453.2507396066031
 20
421.5472311849957
 30
0.0
 40
0.900488542836536
  0
HATCH
  5
7A2
330
1F
100
AcDbEntity
  8
防火材
  6
Continuous
370
    13
100
AcDbHatch
 10
0.0
 20
0.0
 30
0.0
210
0.0
220
0.0
230
1.0
  2
HONEY
 70
     0
 71
     1
 91
        1
 92
        7
 72
     1
 73
     1
 93
        2
 10
454.0222149932644
 20
421.5472311849957
 42
1.0
 10
452.4792642199419
 20
421.5472311849957
 42
1.0
 97
        1
330
7A3
 75
     1
 76
     1
 52
0.0
 41
1.599999999999999
 77
     0
 78
     3
 53
0.0
 43
-970.3996137447836
 44
-1234.176446934553
 45
0.3
 46
0.1732050807568877
 79
     2
 49
0.2
 49
-0.4
 53
120.0
 43
-970.3996137447836
 44
-1234.176446934553
 45
-0.2999999999999999
 46
0.1732050807568878
 79
     2
 49
0.1999999999999997
 49
-0.3999999999999995
 53
60.0
 43
-970.3996137447836
 44
-1234.176446934553
 45
0.0000000000000001
 46
0.3464101615137754
 79
     2
 49
-0.4
 49
0.2
 47
0.0049125579128181
 98
        1
 10
453.4357817212456
 20
421.5143121687283
1001
GradientColor1ACI
1070
     5
1001
GradientColor2ACI
1070
     2
1001
ACAD
1010
0.0
1020
0.0
1030
0.0
  0
CIRCLE
  5
7A3
102
{ACAD_REACTORS
330
7A2
330
761
102
}
330
1F
100
AcDbEntity
  8
防火材
  6
Continuous
370
    13
100
AcDbCircle
 10
453.2507396066031
 20
421.5472311849957
 30
0.0
 40
0.7714753866611869
  0
CIRCLE
  5
7A4
102
{ACAD_REACTORS
330
761
102
}
330
1F
100
AcDbEntity
  8
防火材
  6
Continuous
370
    13
100
AcDbCircle
 10
452.929048354763
 20
419.7594439879908
 30
0.0
 40
0.900488542836536
  0
HATCH
  5
7A5
330
1F
100
AcDbEntity
  8
防火材
  6
Continuous
370
    13
100
AcDbHatch
 10
0.0
 20
0.0
 30
0.0
210
0.0
220
0.0
230
1.0
  2
HONEY
 70
     0
 71
     1
 91
        1
 92
        7
 72
     1
 73
     1
 93
        2
 10
453.7005237414242
 20
419.7594439879908
 42
1.0
 10
452.1575729681018
 20
419.7594439879908
 42
1.0
 97
        1
330
7A6
 75
     1
 76
     1
 52
0.0
 41
1.599999999999999
 77
     0
 78
     3
 53
0.0
 43
-970.3996137447836
 44
-1234.176446934553
 45
0.3
 46
0.1732050807568877
 79
     2
 49
0.2
 49
-0.4
 53
120.0
 43
-970.3996137447836
 44
-1234.176446934553
 45
-0.2999999999999999
 46
0.1732050807568878
 79
     2
 49
0.1999999999999997
 49
-0.3999999999999995
 53
60.0
 43
-970.3996137447836
 44
-1234.176446934553
 45
0.0000000000000001
 46
0.3464101615137754
 79
     2
 49
-0.4
 49
0.2
 47
0.0049125579128181
 98
        1
 10
453.1140904694056
 20
419.7265249717234
1001
GradientColor1ACI
1070
     5
1001
GradientColor2ACI
1070
     2
1001
ACAD
1010
0.0
1020
0.0
1030
0.0
  0
CIRCLE
  5
7A6
102
{ACAD_REACTORS
330
7A5
330
761
102
}
330
1F
100
AcDbEntity
  8
防火材
  6
Continuous
370
    13
100
AcDbCircle
 10
452.929048354763
 20
419.7594439879908
 30
0.0
 40
0.7714753866611869
  0
CIRCLE
  5
7A7
102
{ACAD_REACTORS
330
761
102
}
330
1F
100
AcDbEntity
  8
防火材
  6
Continuous
370
    13
100
AcDbCircle
 10
454.2186041882263
 20
422.6741149704175
 30
0.0
 40
0.5981411140799759
  0
CIRCLE
  5
7A8
102
{ACAD_REACTORS
330
761
102
}
330
1F
100
AcDbEntity
  8
防火材
  6
Continuous
370
    13
100
AcDbCircle
 10
454.2186041882263
 20
422.6741149704175
 30
0.0
 40
0.5124453286315369
  0
CIRCLE
  5
7A9
102
{ACAD_REACTORS
330
761
102
}
330
1F
100
AcDbEntity
  8
防火材
  6
Continuous
370
    13
100
AcDbCircle
 10
450.7572207521037
 20
422.2239481950782
 30
0.0
 40
0.5981411140799759
  0
CIRCLE
  5
7AA
102
{ACAD_REACTORS
330
761
102
}
330
1F
100
AcDbEntity
  8
防火材
  6
Continuous
370
    13
100
AcDbCircle
 10
450.7572207521037
 20
422.2239481950782
 30
0.0
 40
0.5124453286315369
  0
CIRCLE
  5
7AB
102
{ACAD_REACTORS
330
761
102
}
330
1F
100
AcDbEntity
  8
防火材
  6
Continuous
370
    13
100
AcDbCircle
 10
450.010889830973
 20
421.1049712089061
 30
0.0
 40
0.5981411140799759
  0
CIRCLE
  5
7AC
102
{ACAD_REACTORS
330
761
102
}
330
1F
100
AcDbEntity
  8
防火材
  6
Continuous
370
    13
100
AcDbCircle
 10
450.010889830973
 20
421.1049712089061
 30
0.0
 40
0.5124453286315369
  0
CIRCLE
  5
7AD
102
{ACAD_REACTORS
330
761
102
}
330
1F
100
AcDbEntity
  8
防火材
  6
Continuous
370
    13
100
AcDbCircle
 10
459.3357306357419
 20
435.201499852859
 30
0.0
 40
1.988033282892178
  0
CIRCLE
  5
7AE
102
{ACAD_REACTORS
330
761
102
}
330
1F
100
AcDbEntity
  8
防火材
  6
Continuous
370
    13
100
AcDbCircle
 10
459.3357306357419
 20
435.201499852859
 30
0.0
 40
2.216113818426211
  0
CIRCLE
  5
7AF
102
{ACAD_REACTORS
330
761
102
}
330
1F
100
AcDbEntity
  8
防火材
  6
Continuous
370
    13
100
AcDbCircle
 10
459.3357306357419
 20
435.201499852859
 30
0.0
 40
1.524739949414934
  0
CIRCLE
  5
7B0
102
{ACAD_REACTORS
330
761
102
}
330
1F
100
AcDbEntity
  8
防火材
  6
Continuous
370
    13
100
AcDbCircle
 10
461.2936162931001
 20
432.5762520211323
 30
0.0
 40
0.900488542836536
  0
HATCH
  5
7B1
330
1F
100
AcDbEntity
  8
防火材
  6
Continuous
370
    13
100
AcDbHatch
 10
0.0
 20
0.0
 30
0.0
210
0.0
220
0.0
230
1.0
  2
HONEY
 70
     0
 71
     1
 91
        1
 92
        7
 72
     1
 73
     1
 93
        2
 10
462.0650916797614
 20
432.5762520211323
 42
1.0
 10
460.5221409064389
 20
432.5762520211323
 42
1.0
 97
        1
330
7B2
 75
     1
 76
     1
 52
0.0
 41
1.599999999999999
 77
     0
 78
     3
 53
0.0
 43
-970.3996137447836
 44
-1234.176446934553
 45
0.3
 46
0.1732050807568877
 79
     2
 49
0.2
 49
-0.4
 53
120.0
 43
-970.3996137447836
 44
-1234.176446934553
 45
-0.2999999999999999
 46
0.1732050807568878
 79
     2
 49
0.1999999999999997
 49
-0.3999999999999995
 53
60.0
 43
-970.3996137447836
 44
-1234.176446934553
 45
0.0000000000000001
 46
0.3464101615137754
 79
     2
 49
-0.4
 49
0.2
 47
0.0049125579128181
 98
        1
 10
461.4786584077427
 20
432.543333004865
1001
GradientColor1ACI
1070
     5
1001
GradientColor2ACI
1070
     2
1001
ACAD
1010
0.0
1020
0.0
1030
0.0
  0
CIRCLE
  5
7B2
102
{ACAD_REACTORS
330
7B1
330
761
102
}
330
1F
100
AcDbEntity
  8
防火材
  6
Continuous
370
    13
100
AcDbCircle
 10
461.2936162931001
 20
432.5762520211323
 30
0.0
 40
0.7714753866611869
  0
LWPOLYLINE
  5
7B3
102
{ACAD_REACTORS
330
761
102
}
330
1F
100
AcDbEntity
  8
防火材
  6
Continuous
370
    13
100
AcDbPolyline
 90
        2
 70
     1
 43
0.0
 10
445.8386330579618
 20
428.8994281249213
 42
-1.0
 10
450.7772517374964
 20
428.8994281249213
 42
-1.0
  0
LWPOLYLINE
  5
7B4
102
{ACAD_REACTORS
330
761
102
}
330
1F
100
AcDbEntity
  8
防火材
  6
Continuous
370
    13
100
AcDbPolyline
 90
        2
 70
     1
 43
0.0
 10
450.9435862385445
 20
419.8959652116464
 42
-1.0
 10
449.7473040103844
 20
419.8959652116464
 42
-1.0
  0
CIRCLE
  5
7B5
102
{ACAD_REACTORS
330
761
102
}
330
1F
100
AcDbEntity
  8
防火材
  6
Continuous
370
    13
100
AcDbCircle
 10
452.6966019033678
 20
428.2325429019961
 30
0.0
 40
18.57592284643397
  0
CIRCLE
  5
7B6
102
{ACAD_REACTORS
330
761
102
}
330
1F
100
AcDbEntity
  8
防火材
  6
Continuous
370
    13
100
AcDbCircle
 10
454.0191151805769
 20
420.7190559659827
 30
0.0
 40
0.0799919067475871
  0
CIRCLE
  5
7B7
102
{ACAD_REACTORS
330
761
102
}
330
1F
100
AcDbEntity
  8
防火材
  6
Continuous
370
    13
100
AcDbCircle
 10
454.3424093127426
 20
419.2334754935127
 30
0.0
 40
0.5124453286315369
  0
CIRCLE
  5
7B8
102
{ACAD_REACTORS
330
761
102
}
330
1F
100
AcDbEntity
  8
防火材
  6
Continuous
370
    13
100
AcDbCircle
 10
454.0598001930769
 20
419.5025240212341
 30
0.0
 40
0.106778614452082
  0
CIRCLE
  5
7B9
102
{ACAD_REACTORS
330
761
102
}
330
1F
100
AcDbEntity
  8
防火材
  6
Continuous
370
    13
100
AcDbCircle
 10
454.2465723657691
 20
419.6154783932886
 30
0.0
 40
0.106778614452082
  0
CIRCLE
  5
7BA
102
{ACAD_REACTORS
330
761
102
}
330
1F
100
AcDbEntity
  8
防火材
  6
Continuous
370
    13
100
AcDbCircle
 10
454.2465723657691
 20
419.6154783932886
 30
0.0
 40
0.0799919067475871
  0
CIRCLE
  5
7BB
102
{ACAD_REACTORS
330
761
102
}
330
1F
100
AcDbEntity
  8
防火材
  6
Continuous
370
    13
100
AcDbCircle
 10
454.1639754756428
 20
419.1984453348139
 30
0.0
 40
0.106778614452082
  0
CIRCLE
  5
7BC
102
{ACAD_REACTORS
330
761
102
}
330
1F
100
AcDbEntity
  8
防火材
  6
Continuous
370
    13
100
AcDbCircle
 10
454.1639754756428
 20
419.1984453348139
 30
0.0
 40
0.0799919067475871
  0
CIRCLE
  5
7BD
102
{ACAD_REACTORS
330
761
102
}
330
1F
100
AcDbEntity
  8
防火材
  6
Continuous
370
    13
100
AcDbCircle
 10
453.956635270027
 20
419.31038973123
 30
0.0
 40
0.106778614452082
  0
CIRCLE
  5
7BE
102
{ACAD_REACTORS
330
761
102
}
330
1F
100
AcDbEntity
  8
防火材
  6
Continuous
370
    13
100
AcDbCircle
 10
453.956635270027
 20
419.31038973123
 30
0.0
 40
0.0799919067475871
  0
CIRCLE
  5
7BF
102
{ACAD_REACTORS
330
761
102
}
330
1F
100
AcDbEntity
  8
防火材
  6
Continuous
370
    13
100
AcDbCircle
 10
453.9756697215519
 20
419.0922349936279
 30
0.0
 40
0.106778614452082
  0
CIRCLE
  5
7C0
102
{ACAD_REACTORS
330
761
102
}
330
1F
100
AcDbEntity
  8
防火材
  6
Continuous
370
    13
100
AcDbCircle
 10
453.9756697215519
 20
419.0922349936279
 30
0.0
 40
0.0799919067475871
  0
CIRCLE
  5
7C1
102
{ACAD_REACTORS
330
761
102
}
330
1F
100
AcDbEntity
  8
防火材
  6
Continuous
370
    13
100
AcDbCircle
 10
454.7475843889036
 20
419.2833593079974
 30
0.0
 40
0.106778614452082
  0
CIRCLE
  5
7C2
102
{ACAD_REACTORS
330
761
102
}
330
1F
100
AcDbEntity
  8
防火材
  6
Continuous
370
    13
100
AcDbCircle
 10
454.7475843889036
 20
419.2833593079974
 30
0.0
 40
0.0799919067475871
  0
CIRCLE
  5
7C3
102
{ACAD_REACTORS
330
761
102
}
330
1F
100
AcDbEntity
  8
防火材
  6
Continuous
370
    13
100
AcDbCircle
 10
454.4728568122439
 20
419.6032175062534
 30
0.0
 40
0.106778614452082
  0
CIRCLE
  5
7C4
102
{ACAD_REACTORS
330
761
102
}
330
1F
100
AcDbEntity
  8
防火材
  6
Continuous
370
    13
100
AcDbCircle
 10
454.4728568122439
 20
419.6032175062534
 30
0.0
 40
0.0799919067475871
  0
CIRCLE
  5
7C5
102
{ACAD_REACTORS
330
761
102
}
330
1F
100
AcDbEntity
  8
防火材
  6
Continuous
370
    13
100
AcDbCircle
 10
454.6524662576806
 20
419.4784583651942
 30
0.0
 40
0.106778614452082
  0
CIRCLE
  5
7C6
102
{ACAD_REACTORS
330
761
102
}
330
1F
100
AcDbEntity
  8
防火材
  6
Continuous
370
    13
100
AcDbCircle
 10
454.6524662576806
 20
419.4784583651942
 30
0.0
 40
0.0799919067475871
  0
CIRCLE
  5
7C7
102
{ACAD_REACTORS
330
761
102
}
330
1F
100
AcDbEntity
  8
防火材
  6
Continuous
370
    13
100
AcDbCircle
 10
454.3368552050445
 20
419.0543554772627
 30
0.0
 40
0.106778614452082
  0
CIRCLE
  5
7C8
102
{ACAD_REACTORS
330
761
102
}
330
1F
100
AcDbEntity
  8
防火材
  6
Continuous
370
    13
100
AcDbCircle
 10
454.3368552050445
 20
419.0543554772627
 30
0.0
 40
0.0799919067475871
  0
CIRCLE
  5
7C9
102
{ACAD_REACTORS
330
761
102
}
330
1F
100
AcDbEntity
  8
防火材
  6
Continuous
370
    13
100
AcDbCircle
 10
454.1082072389976
 20
418.9131543672317
 30
0.0
 40
0.106778614452082
  0
CIRCLE
  5
7CA
102
{ACAD_REACTORS
330
761
102
}
330
1F
100
AcDbEntity
  8
防火材
  6
Continuous
370
    13
100
AcDbCircle
 10
454.1082072389976
 20
418.9131543672317
 30
0.0
 40
0.0799919067475871
  0
CIRCLE
  5
7CB
102
{ACAD_REACTORS
330
761
102
}
330
1F
100
AcDbEntity
  8
防火材
  6
Continuous
370
    13
100
AcDbCircle
 10
454.3170990681495
 20
418.8385464895288
 30
0.0
 40
0.106778614452082
  0
CIRCLE
  5
7CC
102
{ACAD_REACTORS
330
761
102
}
330
1F
100
AcDbEntity
  8
防火材
  6
Continuous
370
    13
100
AcDbCircle
 10
454.3170990681495
 20
418.8385464895288
 30
0.0
 40
0.0799919067475871
  0
CIRCLE
  5
7CD
102
{ACAD_REACTORS
330
761
102
}
330
1F
100
AcDbEntity
  8
防火材
  6
Continuous
370
    13
100
AcDbCircle
 10
454.5323236863908
 20
418.8857329856889
 30
0.0
 40
0.106778614452082
  0
CIRCLE
  5
7CE
102
{ACAD_REACTORS
330
761
102
}
330
1F
100
AcDbEntity
  8
防火材
  6
Continuous
370
    13
100
AcDbCircle
 10
454.5323236863908
 20
418.8857329856889
 30
0.0
 40
0.0799919067475871
  0
CIRCLE
  5
7CF
102
{ACAD_REACTORS
330
761
102
}
330
1F
100
AcDbEntity
  8
防火材
  6
Continuous
370
    13
100
AcDbCircle
 10
454.69616430658
 20
419.0581347409367
 30
0.0
 40
0.106778614452082
  0
CIRCLE
  5
7D0
102
{ACAD_REACTORS
330
761
102
}
330
1F
100
AcDbEntity
  8
防火材
  6
Continuous
370
    13
100
AcDbCircle
 10
454.69616430658
 20
419.0581347409367
 30
0.0
 40
0.0799919067475871
  0
CIRCLE
  5
7D1
102
{ACAD_REACTORS
330
761
102
}
330
1F
100
AcDbEntity
  8
防火材
  6
Continuous
370
    13
100
AcDbCircle
 10
454.2461032702807
 20
419.3997454252255
 30
0.0
 40
0.106778614452082
  0
CIRCLE
  5
7D2
102
{ACAD_REACTORS
330
761
102
}
330
1F
100
AcDbEntity
  8
防火材
  6
Continuous
370
    13
100
AcDbCircle
 10
454.2461032702807
 20
419.3997454252255
 30
0.0
 40
0.0799919067475871
  0
CIRCLE
  5
7D3
102
{ACAD_REACTORS
330
761
102
}
330
1F
100
AcDbEntity
  8
防火材
  6
Continuous
370
    13
100
AcDbCircle
 10
454.4592169588244
 20
419.3880166758915
 30
0.0
 40
0.106778614452082
  0
CIRCLE
  5
7D4
102
{ACAD_REACTORS
330
761
102
}
330
1F
100
AcDbEntity
  8
防火材
  6
Continuous
370
    13
100
AcDbCircle
 10
454.4592169588244
 20
419.3880166758915
 30
0.0
 40
0.0799919067475871
  0
CIRCLE
  5
7D5
102
{ACAD_REACTORS
330
761
102
}
330
1F
100
AcDbEntity
  8
防火材
  6
Continuous
370
    13
100
AcDbCircle
 10
454.5159414285875
 20
419.1769534876546
 30
0.0
 40
0.106778614452082
  0
CIRCLE
  5
7D6
102
{ACAD_REACTORS
330
761
102
}
330
1F
100
AcDbEntity
  8
防火材
  6
Continuous
370
    13
100
AcDbCircle
 10
454.5159414285875
 20
419.1769534876546
 30
0.0
 40
0.0799919067475871
  0
CIRCLE
  5
7D7
102
{ACAD_REACTORS
330
761
102
}
330
1F
100
AcDbEntity
  8
防火材
  6
Continuous
370
    13
100
AcDbCircle
 10
454.0598001930769
 20
419.5025240212341
 30
0.0
 40
0.0799919067475871
  0
CIRCLE
  5
7D8
102
{ACAD_REACTORS
330
761
102
}
330
1F
100
AcDbEntity
  8
防火材
  6
Continuous
370
    13
100
AcDbCircle
 10
454.8077520366636
 20
421.6053435473677
 30
0.0
 40
0.5124453286315369
  0
CIRCLE
  5
7D9
102
{ACAD_REACTORS
330
761
102
}
330
1F
100
AcDbEntity
  8
防火材
  6
Continuous
370
    13
100
AcDbCircle
 10
454.5251429169979
 20
421.8743920750892
 30
0.0
 40
0.106778614452082
  0
CIRCLE
  5
7DA
102
{ACAD_REACTORS
330
761
102
}
330
1F
100
AcDbEntity
  8
防火材
  6
Continuous
370
    13
100
AcDbCircle
 10
454.71191508969
 20
421.9873464471436
 30
0.0
 40
0.106778614452082
  0
CIRCLE
  5
7DB
102
{ACAD_REACTORS
330
761
102
}
330
1F
100
AcDbEntity
  8
防火材
  6
Continuous
370
    13
100
AcDbCircle
 10
454.71191508969
 20
421.9873464471436
 30
0.0
 40
0.0799919067475871
  0
CIRCLE
  5
7DC
102
{ACAD_REACTORS
330
761
102
}
330
1F
100
AcDbEntity
  8
防火材
  6
Continuous
370
    13
100
AcDbCircle
 10
454.6293181995637
 20
421.5703133886688
 30
0.0
 40
0.106778614452082
  0
CIRCLE
  5
7DD
102
{ACAD_REACTORS
330
761
102
}
330
1F
100
AcDbEntity
  8
防火材
  6
Continuous
370
    13
100
AcDbCircle
 10
454.6293181995637
 20
421.5703133886688
 30
0.0
 40
0.0799919067475871
  0
CIRCLE
  5
7DE
102
{ACAD_REACTORS
330
761
102
}
330
1F
100
AcDbEntity
  8
防火材
  6
Continuous
370
    13
100
AcDbCircle
 10
454.421977993948
 20
421.6822577850851
 30
0.0
 40
0.106778614452082
  0
CIRCLE
  5
7DF
102
{ACAD_REACTORS
330
761
102
}
330
1F
100
AcDbEntity
  8
防火材
  6
Continuous
370
    13
100
AcDbCircle
 10
454.421977993948
 20
421.6822577850851
 30
0.0
 40
0.0799919067475871
  0
CIRCLE
  5
7E0
102
{ACAD_REACTORS
330
761
102
}
330
1F
100
AcDbEntity
  8
防火材
  6
Continuous
370
    13
100
AcDbCircle
 10
454.4410124454729
 20
421.4641030474829
 30
0.0
 40
0.106778614452082
  0
CIRCLE
  5
7E1
102
{ACAD_REACTORS
330
761
102
}
330
1F
100
AcDbEntity
  8
防火材
  6
Continuous
370
    13
100
AcDbCircle
 10
454.4410124454729
 20
421.4641030474829
 30
0.0
 40
0.0799919067475871
  0
CIRCLE
  5
7E2
102
{ACAD_REACTORS
330
761
102
}
330
1F
100
AcDbEntity
  8
防火材
  6
Continuous
370
    13
100
AcDbCircle
 10
455.2129271128245
 20
421.6552273618524
 30
0.0
 40
0.106778614452082
  0
CIRCLE
  5
7E3
102
{ACAD_REACTORS
330
761
102
}
330
1F
100
AcDbEntity
  8
防火材
  6
Continuous
370
    13
100
AcDbCircle
 10
455.2129271128245
 20
421.6552273618524
 30
0.0
 40
0.0799919067475871
  0
CIRCLE
  5
7E4
102
{ACAD_REACTORS
330
761
102
}
330
1F
100
AcDbEntity
  8
防火材
  6
Continuous
370
    13
100
AcDbCircle
 10
454.9381995361649
 20
421.9750855601084
 30
0.0
 40
0.106778614452082
  0
CIRCLE
  5
7E5
102
{ACAD_REACTORS
330
761
102
}
330
1F
100
AcDbEntity
  8
防火材
  6
Continuous
370
    13
100
AcDbCircle
 10
454.9381995361649
 20
421.9750855601084
 30
0.0
 40
0.0799919067475871
  0
CIRCLE
  5
7E6
102
{ACAD_REACTORS
330
761
102
}
330
1F
100
AcDbEntity
  8
防火材
  6
Continuous
370
    13
100
AcDbCircle
 10
455.1178089816016
 20
421.8503264190492
 30
0.0
 40
0.106778614452082
  0
CIRCLE
  5
7E7
102
{ACAD_REACTORS
330
761
102
}
330
1F
100
AcDbEntity
  8
防火材
  6
Continuous
370
    13
100
AcDbCircle
 10
455.1178089816016
 20
421.8503264190492
 30
0.0
 40
0.0799919067475871
  0
CIRCLE
  5
7E8
102
{ACAD_REACTORS
330
761
102
}
330
1F
100
AcDbEntity
  8
防火材
  6
Continuous
370
    13
100
AcDbCircle
 10
454.8021979289655
 20
421.4262235311178
 30
0.0
 40
0.106778614452082
  0
CIRCLE
  5
7E9
102
{ACAD_REACTORS
330
761
102
}
330
1F
100
AcDbEntity
  8
防火材
  6
Continuous
370
    13
100
AcDbCircle
 10
454.8021979289655
 20
421.4262235311178
 30
0.0
 40
0.0799919067475871
  0
CIRCLE
  5
7EA
102
{ACAD_REACTORS
330
761
102
}
330
1F
100
AcDbEntity
  8
防火材
  6
Continuous
370
    13
100
AcDbCircle
 10
454.5735499629184
 20
421.2850224210867
 30
0.0
 40
0.106778614452082
  0
CIRCLE
  5
7EB
102
{ACAD_REACTORS
330
761
102
}
330
1F
100
AcDbEntity
  8
防火材
  6
Continuous
370
    13
100
AcDbCircle
 10
454.5735499629184
 20
421.2850224210867
 30
0.0
 40
0.0799919067475871
  0
CIRCLE
  5
7EC
102
{ACAD_REACTORS
330
761
102
}
330
1F
100
AcDbEntity
  8
防火材
  6
Continuous
370
    13
100
AcDbCircle
 10
454.7824417920704
 20
421.2104145433839
 30
0.0
 40
0.106778614452082
  0
CIRCLE
  5
7ED
102
{ACAD_REACTORS
330
761
102
}
330
1F
100
AcDbEntity
  8
防火材
  6
Continuous
370
    13
100
AcDbCircle
 10
454.7824417920704
 20
421.2104145433839
 30
0.0
 40
0.0799919067475871
  0
CIRCLE
  5
7EE
102
{ACAD_REACTORS
330
761
102
}
330
1F
100
AcDbEntity
  8
防火材
  6
Continuous
370
    13
100
AcDbCircle
 10
454.9976664103118
 20
421.2576010395439
 30
0.0
 40
0.106778614452082
  0
CIRCLE
  5
7EF
102
{ACAD_REACTORS
330
761
102
}
330
1F
100
AcDbEntity
  8
防火材
  6
Continuous
370
    13
100
AcDbCircle
 10
454.9976664103118
 20
421.2576010395439
 30
0.0
 40
0.0799919067475871
  0
CIRCLE
  5
7F0
102
{ACAD_REACTORS
330
761
102
}
330
1F
100
AcDbEntity
  8
防火材
  6
Continuous
370
    13
100
AcDbCircle
 10
455.1615070305009
 20
421.4300027947918
 30
0.0
 40
0.106778614452082
  0
CIRCLE
  5
7F1
102
{ACAD_REACTORS
330
761
102
}
330
1F
100
AcDbEntity
  8
防火材
  6
Continuous
370
    13
100
AcDbCircle
 10
455.1615070305009
 20
421.4300027947918
 30
0.0
 40
0.0799919067475871
  0
CIRCLE
  5
7F2
102
{ACAD_REACTORS
330
761
102
}
330
1F
100
AcDbEntity
  8
防火材
  6
Continuous
370
    13
100
AcDbCircle
 10
454.7114459942016
 20
421.7716134790805
 30
0.0
 40
0.106778614452082
  0
CIRCLE
  5
7F3
102
{ACAD_REACTORS
330
761
102
}
330
1F
100
AcDbEntity
  8
防火材
  6
Continuous
370
    13
100
AcDbCircle
 10
454.7114459942016
 20
421.7716134790805
 30
0.0
 40
0.0799919067475871
  0
CIRCLE
  5
7F4
102
{ACAD_REACTORS
330
761
102
}
330
1F
100
AcDbEntity
  8
防火材
  6
Continuous
370
    13
100
AcDbCircle
 10
454.9245596827453
 20
421.7598847297465
 30
0.0
 40
0.106778614452082
  0
CIRCLE
  5
7F5
102
{ACAD_REACTORS
330
761
102
}
330
1F
100
AcDbEntity
  8
防火材
  6
Continuous
370
    13
100
AcDbCircle
 10
454.9245596827453
 20
421.7598847297465
 30
0.0
 40
0.0799919067475871
  0
CIRCLE
  5
7F6
102
{ACAD_REACTORS
330
761
102
}
330
1F
100
AcDbEntity
  8
防火材
  6
Continuous
370
    13
100
AcDbCircle
 10
454.9812841525084
 20
421.5488215415096
 30
0.0
 40
0.106778614452082
  0
CIRCLE
  5
7F7
102
{ACAD_REACTORS
330
761
102
}
330
1F
100
AcDbEntity
  8
防火材
  6
Continuous
370
    13
100
AcDbCircle
 10
454.9812841525084
 20
421.5488215415096
 30
0.0
 40
0.0799919067475871
  0
CIRCLE
  5
7F8
102
{ACAD_REACTORS
330
761
102
}
330
1F
100
AcDbEntity
  8
防火材
  6
Continuous
370
    13
100
AcDbCircle
 10
454.5251429169979
 20
421.8743920750892
 30
0.0
 40
0.0799919067475871
  0
CIRCLE
  5
7F9
102
{ACAD_REACTORS
330
761
102
}
330
1F
100
AcDbEntity
  8
防火材
  6
Continuous
370
    13
100
AcDbCircle
 10
453.5003107435617
 20
418.3540364925702
 30
0.0
 40
0.5124453286315369
  0
CIRCLE
  5
7FA
102
{ACAD_REACTORS
330
761
102
}
330
1F
100
AcDbEntity
  8
防火材
  6
Continuous
370
    13
100
AcDbCircle
 10
453.217701623896
 20
418.6230850202917
 30
0.0
 40
0.106778614452082
  0
CIRCLE
  5
7FB
102
{ACAD_REACTORS
330
761
102
}
330
1F
100
AcDbEntity
  8
防火材
  6
Continuous
370
    13
100
AcDbCircle
 10
453.4044737965881
 20
418.736039392346
 30
0.0
 40
0.106778614452082
  0
CIRCLE
  5
7FC
102
{ACAD_REACTORS
330
761
102
}
330
1F
100
AcDbEntity
  8
防火材
  6
Continuous
370
    13
100
AcDbCircle
 10
453.4044737965881
 20
418.736039392346
 30
0.0
 40
0.0799919067475871
  0
CIRCLE
  5
7FD
102
{ACAD_REACTORS
330
761
102
}
330
1F
100
AcDbEntity
  8
防火材
  6
Continuous
370
    13
100
AcDbCircle
 10
453.3218769064618
 20
418.3190063338713
 30
0.0
 40
0.106778614452082
  0
CIRCLE
  5
7FE
102
{ACAD_REACTORS
330
761
102
}
330
1F
100
AcDbEntity
  8
防火材
  6
Continuous
370
    13
100
AcDbCircle
 10
453.3218769064618
 20
418.3190063338713
 30
0.0
 40
0.0799919067475871
  0
CIRCLE
  5
7FF
102
{ACAD_REACTORS
330
761
102
}
330
1F
100
AcDbEntity
  8
防火材
  6
Continuous
370
    13
100
AcDbCircle
 10
453.1145367008461
 20
418.4309507302875
 30
0.0
 40
0.106778614452082
  0
CIRCLE
  5
800
102
{ACAD_REACTORS
330
761
102
}
330
1F
100
AcDbEntity
  8
防火材
  6
Continuous
370
    13
100
AcDbCircle
 10
453.1145367008461
 20
418.4309507302875
 30
0.0
 40
0.0799919067475871
  0
CIRCLE
  5
801
102
{ACAD_REACTORS
330
761
102
}
330
1F
100
AcDbEntity
  8
防火材
  6
Continuous
370
    13
100
AcDbCircle
 10
453.133571152371
 20
418.2127959926853
 30
0.0
 40
0.106778614452082
  0
CIRCLE
  5
802
102
{ACAD_REACTORS
330
761
102
}
330
1F
100
AcDbEntity
  8
防火材
  6
Continuous
370
    13
100
AcDbCircle
 10
453.133571152371
 20
418.2127959926853
 30
0.0
 40
0.0799919067475871
  0
CIRCLE
  5
803
102
{ACAD_REACTORS
330
761
102
}
330
1F
100
AcDbEntity
  8
防火材
  6
Continuous
370
    13
100
AcDbCircle
 10
453.9054858197227
 20
418.4039203070549
 30
0.0
 40
0.106778614452082
  0
CIRCLE
  5
804
102
{ACAD_REACTORS
330
761
102
}
330
1F
100
AcDbEntity
  8
防火材
  6
Continuous
370
    13
100
AcDbCircle
 10
453.9054858197227
 20
418.4039203070549
 30
0.0
 40
0.0799919067475871
  0
CIRCLE
  5
805
102
{ACAD_REACTORS
330
761
102
}
330
1F
100
AcDbEntity
  8
防火材
  6
Continuous
370
    13
100
AcDbCircle
 10
453.630758243063
 20
418.723778505311
 30
0.0
 40
0.106778614452082
  0
CIRCLE
  5
806
102
{ACAD_REACTORS
330
761
102
}
330
1F
100
AcDbEntity
  8
防火材
  6
Continuous
370
    13
100
AcDbCircle
 10
453.630758243063
 20
418.723778505311
 30
0.0
 40
0.0799919067475871
  0
CIRCLE
  5
807
102
{ACAD_REACTORS
330
761
102
}
330
1F
100
AcDbEntity
  8
防火材
  6
Continuous
370
    13
100
AcDbCircle
 10
453.8103676884997
 20
418.5990193642517
 30
0.0
 40
0.106778614452082
  0
CIRCLE
  5
808
102
{ACAD_REACTORS
330
761
102
}
330
1F
100
AcDbEntity
  8
防火材
  6
Continuous
370
    13
100
AcDbCircle
 10
453.8103676884997
 20
418.5990193642517
 30
0.0
 40
0.0799919067475871
  0
CIRCLE
  5
809
102
{ACAD_REACTORS
330
761
102
}
330
1F
100
AcDbEntity
  8
防火材
  6
Continuous
370
    13
100
AcDbCircle
 10
453.4947566358636
 20
418.1749164763203
 30
0.0
 40
0.106778614452082
  0
CIRCLE
  5
80A
102
{ACAD_REACTORS
330
761
102
}
330
1F
100
AcDbEntity
  8
防火材
  6
Continuous
370
    13
100
AcDbCircle
 10
453.4947566358636
 20
418.1749164763203
 30
0.0
 40
0.0799919067475871
  0
CIRCLE
  5
80B
102
{ACAD_REACTORS
330
761
102
}
330
1F
100
AcDbEntity
  8
防火材
  6
Continuous
370
    13
100
AcDbCircle
 10
453.2661086698166
 20
418.0337153662892
 30
0.0
 40
0.106778614452082
  0
CIRCLE
  5
80C
102
{ACAD_REACTORS
330
761
102
}
330
1F
100
AcDbEntity
  8
防火材
  6
Continuous
370
    13
100
AcDbCircle
 10
453.2661086698166
 20
418.0337153662892
 30
0.0
 40
0.0799919067475871
  0
CIRCLE
  5
80D
102
{ACAD_REACTORS
330
761
102
}
330
1F
100
AcDbEntity
  8
防火材
  6
Continuous
370
    13
100
AcDbCircle
 10
453.4750004989685
 20
417.9591074885864
 30
0.0
 40
0.106778614452082
  0
CIRCLE
  5
80E
102
{ACAD_REACTORS
330
761
102
}
330
1F
100
AcDbEntity
  8
防火材
  6
Continuous
370
    13
100
AcDbCircle
 10
453.4750004989685
 20
417.9591074885864
 30
0.0
 40
0.0799919067475871
  0
CIRCLE
  5
80F
102
{ACAD_REACTORS
330
761
102
}
330
1F
100
AcDbEntity
  8
防火材
  6
Continuous
370
    13
100
AcDbCircle
 10
453.6902251172099
 20
418.0062939847464
 30
0.0
 40
0.106778614452082
  0
CIRCLE
  5
810
102
{ACAD_REACTORS
330
761
102
}
330
1F
100
AcDbEntity
  8
防火材
  6
Continuous
370
    13
100
AcDbCircle
 10
453.6902251172099
 20
418.0062939847464
 30
0.0
 40
0.0799919067475871
  0
CIRCLE
  5
811
102
{ACAD_REACTORS
330
761
102
}
330
1F
100
AcDbEntity
  8
防火材
  6
Continuous
370
    13
100
AcDbCircle
 10
453.8540657373991
 20
418.1786957399943
 30
0.0
 40
0.106778614452082
  0
CIRCLE
  5
812
102
{ACAD_REACTORS
330
761
102
}
330
1F
100
AcDbEntity
  8
防火材
  6
Continuous
370
    13
100
AcDbCircle
 10
453.8540657373991
 20
418.1786957399943
 30
0.0
 40
0.0799919067475871
  0
CIRCLE
  5
813
102
{ACAD_REACTORS
330
761
102
}
330
1F
100
AcDbEntity
  8
防火材
  6
Continuous
370
    13
100
AcDbCircle
 10
453.4040047010997
 20
418.520306424283
 30
0.0
 40
0.106778614452082
  0
CIRCLE
  5
814
102
{ACAD_REACTORS
330
761
102
}
330
1F
100
AcDbEntity
  8
防火材
  6
Continuous
370
    13
100
AcDbCircle
 10
453.4040047010997
 20
418.520306424283
 30
0.0
 40
0.0799919067475871
  0
CIRCLE
  5
815
102
{ACAD_REACTORS
330
761
102
}
330
1F
100
AcDbEntity
  8
防火材
  6
Continuous
370
    13
100
AcDbCircle
 10
453.6171183896434
 20
418.508577674949
 30
0.0
 40
0.106778614452082
  0
CIRCLE
  5
816
102
{ACAD_REACTORS
330
761
102
}
330
1F
100
AcDbEntity
  8
防火材
  6
Continuous
370
    13
100
AcDbCircle
 10
453.6171183896434
 20
418.508577674949
 30
0.0
 40
0.0799919067475871
  0
CIRCLE
  5
817
102
{ACAD_REACTORS
330
761
102
}
330
1F
100
AcDbEntity
  8
防火材
  6
Continuous
370
    13
100
AcDbCircle
 10
453.6738428594065
 20
418.297514486712
 30
0.0
 40
0.106778614452082
  0
CIRCLE
  5
818
102
{ACAD_REACTORS
330
761
102
}
330
1F
100
AcDbEntity
  8
防火材
  6
Continuous
370
    13
100
AcDbCircle
 10
453.6738428594065
 20
418.297514486712
 30
0.0
 40
0.0799919067475871
  0
CIRCLE
  5
819
102
{ACAD_REACTORS
330
761
102
}
330
1F
100
AcDbEntity
  8
防火材
  6
Continuous
370
    13
100
AcDbCircle
 10
453.217701623896
 20
418.6230850202917
 30
0.0
 40
0.0799919067475871
  0
LINE
  5
81A
330
1F
100
AcDbEntity
  8
防火材
  6
Continuous
370
    13
100
AcDbLine
 10
552.5128471664199
 20
474.0065422071406
 30
0.0
 11
537.1326065722955
 21
476.6262211796913
 31
0.0
  0
LINE
  5
81B
330
1F
100
AcDbEntity
  8
防火材
  6
Continuous
370
    13
100
AcDbLine
 10
537.132606572295
 20
471.3868632345899
 30
0.0
 11
552.5128471664199
 21
474.0065422071406
 31
0.0
  0
ARC
  5
81C
330
1F
100
AcDbEntity
  8
防火材
  6
Continuous
370
    13
100
AcDbCircle
 10
537.132606572295
 20
474.0065422071406
 30
0.0
 40
2.619678972550698
100
AcDbArc
 50
90.0
 51
270.0
  0
LINE
  5
81D
330
1F
100
AcDbEntity
  8
防火材
  6
Continuous
370
    13
100
AcDbLine
 10
552.4812269789686
 20
467.8801629560471
 30
0.0
 11
537.1009863848441
 21
470.4998419285978
 31
0.0
  0
LINE
  5
81E
330
1F
100
AcDbEntity
  8
防火材
  6
Continuous
370
    13
100
AcDbLine
 10
537.1009863848436
 20
465.2604839834964
 30
0.0
 11
552.4812269789686
 21
467.8801629560471
 31
0.0
  0
ARC
  5
81F
330
1F
100
AcDbEntity
  8
防火材
  6
Continuous
370
    13
100
AcDbCircle
 10
537.1009863848436
 20
467.8801629560471
 30
0.0
 40
2.619678972550698
100
AcDbArc
 50
90.0
 51
270.0
  0
LINE
  5
820
330
1F
100
AcDbEntity
  8
防火材
  6
Continuous
370
    13
100
AcDbLine
 10
534.5129275997442
 20
470.9406596867829
 30
0.0
 11
549.8931681938686
 21
473.5603386593336
 31
0.0
  0
LINE
  5
821
330
1F
100
AcDbEntity
  8
防火材
  6
Continuous
370
    13
100
AcDbLine
 10
549.8931681938691
 20
468.3209807142323
 30
0.0
 11
534.5129275997442
 21
470.9406596867829
 31
0.0
  0
ARC
  5
822
330
1F
100
AcDbEntity
  8
防火材
  6
Continuous
370
    13
100
AcDbCircle
 10
549.8931681938691
 20
470.9406596867829
 30
0.0
 40
2.619678972550698
100
AcDbArc
 50
270.0
 51
90.0
  0
LINE
  5
823
330
1F
100
AcDbEntity
  8
防火材
  6
Continuous
370
    13
100
AcDbLine
 10
552.5128471664199
 20
480.1329214582342
 30
0.0
 11
537.1326065722955
 21
482.7526004307848
 31
0.0
  0
LINE
  5
824
330
1F
100
AcDbEntity
  8
防火材
  6
Continuous
370
    13
100
AcDbLine
 10
537.132606572295
 20
477.5132424856836
 30
0.0
 11
552.5128471664199
 21
480.1329214582342
 31
0.0
  0
ARC
  5
825
330
1F
100
AcDbEntity
  8
防火材
  6
Continuous
370
    13
100
AcDbCircle
 10
537.132606572295
 20
480.1329214582342
 30
0.0
 40
2.619678972550698
100
AcDbArc
 50
90.0
 51
270.0
  0
LINE
  5
826
330
1F
100
AcDbEntity
  8
防火材
  6
Continuous
370
    13
100
AcDbLine
 10
534.5129275997442
 20
477.0670389378765
 30
0.0
 11
549.8931681938686
 21
479.6867179104272
 31
0.0
  0
LINE
  5
827
330
1F
100
AcDbEntity
  8
防火材
  6
Continuous
370
    13
100
AcDbLine
 10
549.8931681938691
 20
474.4473599653258
 30
0.0
 11
534.5129275997442
 21
477.0670389378765
 31
0.0
  0
ARC
  5
828
330
1F
100
AcDbEntity
  8
防火材
  6
Continuous
370
    13
100
AcDbCircle
 10
549.8931681938691
 20
477.0670389378765
 30
0.0
 40
2.619678972550698
100
AcDbArc
 50
270.0
 51
90.0
  0
LINE
  5
829
330
1F
100
AcDbEntity
  8
防火材
  6
Continuous
370
    13
100
AcDbLine
 10
552.4812269789686
 20
461.7537837049535
 30
0.0
 11
537.1009863848441
 21
464.3734626775041
 31
0.0
  0
LINE
  5
82A
330
1F
100
AcDbEntity
  8
防火材
  6
Continuous
370
    13
100
AcDbLine
 10
537.1009863848436
 20
459.1341047324029
 30
0.0
 11
552.4812269789686
 21
461.7537837049535
 31
0.0
  0
ARC
  5
82B
330
1F
100
AcDbEntity
  8
防火材
  6
Continuous
370
    13
100
AcDbCircle
 10
537.1009863848436
 20
461.7537837049535
 30
0.0
 40
2.619678972550698
100
AcDbArc
 50
90.0
 51
270.0
  0
LINE
  5
82C
330
1F
100
AcDbEntity
  8
防火材
  6
Continuous
370
    13
100
AcDbLine
 10
534.5129275997442
 20
464.8142804356893
 30
0.0
 11
549.8931681938686
 21
467.43395940824
 31
0.0
  0
LINE
  5
82D
330
1F
100
AcDbEntity
  8
防火材
  6
Continuous
370
    13
100
AcDbLine
 10
549.8931681938691
 20
462.1946014631387
 30
0.0
 11
534.5129275997442
 21
464.8142804356893
 31
0.0
  0
ARC
  5
82E
330
1F
100
AcDbEntity
  8
防火材
  6
Continuous
370
    13
100
AcDbCircle
 10
549.8931681938691
 20
464.8142804356893
 30
0.0
 40
2.619678972550698
100
AcDbArc
 50
270.0
 51
90.0
  0
LINE
  5
82F
330
1F
100
AcDbEntity
  8
防火材
  6
Continuous
370
    13
100
AcDbLine
 10
552.4812269789686
 20
455.6274044538599
 30
0.0
 11
537.1009863848441
 21
458.2470834264106
 31
0.0
  0
LINE
  5
830
330
1F
100
AcDbEntity
  8
防火材
  6
Continuous
370
    13
100
AcDbLine
 10
537.1009863848436
 20
453.0077254813092
 30
0.0
 11
552.4812269789686
 21
455.6274044538599
 31
0.0
  0
ARC
  5
831
330
1F
100
AcDbEntity
  8
防火材
  6
Continuous
370
    13
100
AcDbCircle
 10
537.1009863848436
 20
455.6274044538599
 30
0.0
 40
2.619678972550698
100
AcDbArc
 50
90.0
 51
270.0
  0
LINE
  5
832
330
1F
100
AcDbEntity
  8
防火材
  6
Continuous
370
    13
100
AcDbLine
 10
534.5129275997442
 20
458.6879011845958
 30
0.0
 11
549.8931681938686
 21
461.3075801571465
 31
0.0
  0
LINE
  5
833
330
1F
100
AcDbEntity
  8
防火材
  6
Continuous
370
    13
100
AcDbLine
 10
549.8931681938691
 20
456.0682222120451
 30
0.0
 11
534.5129275997442
 21
458.6879011845958
 31
0.0
  0
ARC
  5
834
330
1F
100
AcDbEntity
  8
防火材
  6
Continuous
370
    13
100
AcDbCircle
 10
549.8931681938691
 20
458.6879011845958
 30
0.0
 40
2.619678972550698
100
AcDbArc
 50
270.0
 51
90.0
  0
LINE
  5
835
330
1F
100
AcDbEntity
  8
防火材
  6
Continuous
370
    13
100
AcDbLine
 10
552.4812269789686
 20
449.5010252027664
 30
0.0
 11
537.1009863848441
 21
452.1207041753171
 31
0.0
  0
LINE
  5
836
330
1F
100
AcDbEntity
  8
防火材
  6
Continuous
370
    13
100
AcDbLine
 10
537.1009863848436
 20
446.8813462302157
 30
0.0
 11
552.4812269789686
 21
449.5010252027664
 31
0.0
  0
ARC
  5
837
330
1F
100
AcDbEntity
  8
防火材
  6
Continuous
370
    13
100
AcDbCircle
 10
537.1009863848436
 20
449.5010252027664
 30
0.0
 40
2.619678972550698
100
AcDbArc
 50
90.0
 51
270.0
  0
LINE
  5
838
330
1F
100
AcDbEntity
  8
防火材
  6
Continuous
370
    13
100
AcDbLine
 10
534.5129275997442
 20
452.5615219335022
 30
0.0
 11
549.8931681938686
 21
455.1812009060529
 31
0.0
  0
LINE
  5
839
330
1F
100
AcDbEntity
  8
防火材
  6
Continuous
370
    13
100
AcDbLine
 10
549.8931681938691
 20
449.9418429609516
 30
0.0
 11
534.5129275997442
 21
452.5615219335022
 31
0.0
  0
ARC
  5
83A
330
1F
100
AcDbEntity
  8
防火材
  6
Continuous
370
    13
100
AcDbCircle
 10
549.8931681938691
 20
452.5615219335022
 30
0.0
 40
2.619678972550698
100
AcDbArc
 50
270.0
 51
90.0
  0
LINE
  5
83B
330
1F
100
AcDbEntity
  8
防火材
  6
Continuous
370
    13
100
AcDbLine
 10
552.4812269789686
 20
443.3746459516728
 30
0.0
 11
537.1009863848441
 21
445.9943249242235
 31
0.0
  0
LINE
  5
83C
330
1F
100
AcDbEntity
  8
防火材
  6
Continuous
370
    13
100
AcDbLine
 10
539.6115123000984
 20
441.182578752162
 30
0.0
 11
552.4812269789686
 21
443.3746459516728
 31
0.0
  0
ARC
  5
83D
330
1F
100
AcDbEntity
  8
防火材
  6
Continuous
370
    13
100
AcDbCircle
 10
537.1009863848436
 20
443.3746459516728
 30
0.0
 40
2.619678972550698
100
AcDbArc
 50
90.0
 51
236.8005321463709
  0
LINE
  5
83E
330
1F
100
AcDbEntity
  8
防火材
  6
Continuous
370
    13
100
AcDbLine
 10
534.5129275997442
 20
446.4351426824086
 30
0.0
 11
549.8931681938686
 21
449.0548216549593
 31
0.0
  0
LINE
  5
83F
330
1F
100
AcDbEntity
  8
防火材
  6
Continuous
370
    13
100
AcDbLine
 10
549.8931681938691
 20
443.815463709858
 30
0.0
 11
534.5129275997442
 21
446.4351426824086
 31
0.0
  0
ARC
  5
840
330
1F
100
AcDbEntity
  8
防火材
  6
Continuous
370
    13
100
AcDbCircle
 10
549.8931681938691
 20
446.4351426824086
 30
0.0
 40
2.619678972550698
100
AcDbArc
 50
270.0
 51
90.0
  0
LINE
  5
841
330
1F
100
AcDbEntity
  8
防火材
  6
Continuous
370
    13
100
AcDbLine
 10
539.6431324875493
 20
441.182578752162
 30
0.0
 11
549.8931681938686
 21
442.9284424038658
 31
0.0
  0
ARC
  5
842
330
1F
100
AcDbEntity
  8
防火材
  6
Continuous
370
    13
100
AcDbCircle
 10
549.8931681938691
 20
440.3087634313151
 30
0.0
 40
2.619678972550698
100
AcDbArc
 50
19.48488476393723
 51
90.0
  0
ARC
  5
843
330
1F
100
AcDbEntity
  8
防火材
  6
Continuous
370
    13
100
AcDbCircle
 10
537.132606572295
 20
486.2593007093278
 30
0.0
 40
2.619678972550698
100
AcDbArc
 50
136.7453059712828
 51
270.0
  0
LINE
  5
844
330
1F
100
AcDbEntity
  8
防火材
  6
Continuous
370
    13
100
AcDbLine
 10
534.5129275997442
 20
483.1934181889701
 30
0.0
 11
543.5133983347514
 21
484.6572758378151
 31
0.0
  0
LINE
  5
845
330
1F
100
AcDbEntity
  8
防火材
  6
Continuous
370
    13
100
AcDbLine
 10
549.8931681938691
 20
480.5737392164194
 30
0.0
 11
534.5129275997442
 21
483.1934181889701
 31
0.0
  0
ARC
  5
846
330
1F
100
AcDbEntity
  8
防火材
  6
Continuous
370
    13
100
AcDbCircle
 10
549.8931681938691
 20
483.1934181889701
 30
0.0
 40
2.619678972550698
100
AcDbArc
 50
270.0
 51
312.0391168694344
  0
LINE
  5
847
330
1F
100
AcDbEntity
  8
防火材
  6
Continuous
370
    13
100
AcDbLine
 10
552.4812269789686
 20
412.430058402655
 30
0.0
 11
537.1009863848441
 21
415.0497373752057
 31
0.0
  0
LINE
  5
848
330
1F
100
AcDbEntity
  8
防火材
  6
Continuous
370
    13
100
AcDbLine
 10
537.1009863848436
 20
409.8103794301043
 30
0.0
 11
552.4812269789686
 21
412.430058402655
 31
0.0
  0
ARC
  5
849
330
1F
100
AcDbEntity
  8
防火材
  6
Continuous
370
    13
100
AcDbCircle
 10
537.1009863848436
 20
412.430058402655
 30
0.0
 40
2.619678972550698
100
AcDbArc
 50
90.0
 51
270.0
  0
LINE
  5
84A
330
1F
100
AcDbEntity
  8
防火材
  6
Continuous
370
    13
100
AcDbLine
 10
534.5129275997442
 20
409.3641758822973
 30
0.0
 11
549.8931681938686
 21
411.983854854848
 31
0.0
  0
LINE
  5
84B
330
1F
100
AcDbEntity
  8
防火材
  6
Continuous
370
    13
100
AcDbLine
 10
549.8931681938691
 20
406.7444969097466
 30
0.0
 11
534.5129275997442
 21
409.3641758822973
 31
0.0
  0
ARC
  5
84C
330
1F
100
AcDbEntity
  8
防火材
  6
Continuous
370
    13
100
AcDbCircle
 10
549.8931681938691
 20
409.3641758822973
 30
0.0
 40
2.619678972550698
100
AcDbArc
 50
270.0
 51
90.0
  0
LINE
  5
84D
330
1F
100
AcDbEntity
  8
防火材
  6
Continuous
370
    13
100
AcDbLine
 10
552.4812269789686
 20
406.3036791515615
 30
0.0
 11
537.1009863848441
 21
408.9233581241122
 31
0.0
  0
LINE
  5
84E
330
1F
100
AcDbEntity
  8
防火材
  6
Continuous
370
    13
100
AcDbLine
 10
537.1009863848436
 20
403.6840001790108
 30
0.0
 11
552.4812269789686
 21
406.3036791515615
 31
0.0
  0
ARC
  5
84F
330
1F
100
AcDbEntity
  8
防火材
  6
Continuous
370
    13
100
AcDbCircle
 10
537.1009863848436
 20
406.3036791515615
 30
0.0
 40
2.619678972550698
100
AcDbArc
 50
90.0
 51
270.0
  0
LINE
  5
850
330
1F
100
AcDbEntity
  8
防火材
  6
Continuous
370
    13
100
AcDbLine
 10
552.4812269789686
 20
400.1772999004678
 30
0.0
 11
537.1009863848441
 21
402.7969788730185
 31
0.0
  0
LINE
  5
851
330
1F
100
AcDbEntity
  8
防火材
  6
Continuous
370
    13
100
AcDbLine
 10
537.1009863848436
 20
397.5576209279172
 30
0.0
 11
552.4812269789686
 21
400.1772999004678
 31
0.0
  0
ARC
  5
852
330
1F
100
AcDbEntity
  8
防火材
  6
Continuous
370
    13
100
AcDbCircle
 10
537.1009863848436
 20
400.1772999004678
 30
0.0
 40
2.619678972550698
100
AcDbArc
 50
90.0
 51
270.0
  0
LINE
  5
853
330
1F
100
AcDbEntity
  8
防火材
  6
Continuous
370
    13
100
AcDbLine
 10
534.5129275997442
 20
403.2377966312037
 30
0.0
 11
549.8931681938686
 21
405.8574756037544
 31
0.0
  0
LINE
  5
854
330
1F
100
AcDbEntity
  8
防火材
  6
Continuous
370
    13
100
AcDbLine
 10
549.8931681938691
 20
400.618117658653
 30
0.0
 11
534.5129275997442
 21
403.2377966312037
 31
0.0
  0
ARC
  5
855
330
1F
100
AcDbEntity
  8
防火材
  6
Continuous
370
    13
100
AcDbCircle
 10
549.8931681938691
 20
403.2377966312037
 30
0.0
 40
2.619678972550698
100
AcDbArc
 50
270.0
 51
90.0
  0
LINE
  5
856
330
1F
100
AcDbEntity
  8
防火材
  6
Continuous
370
    13
100
AcDbLine
 10
534.5129275997442
 20
397.1114173801102
 30
0.0
 11
549.8931681938686
 21
399.7310963526609
 31
0.0
  0
LINE
  5
857
330
1F
100
AcDbEntity
  8
防火材
  6
Continuous
370
    13
100
AcDbLine
 10
549.8931681938691
 20
394.4917384075595
 30
0.0
 11
534.5129275997442
 21
397.1114173801102
 31
0.0
  0
ARC
  5
858
330
1F
100
AcDbEntity
  8
防火材
  6
Continuous
370
    13
100
AcDbCircle
 10
549.8931681938691
 20
397.1114173801102
 30
0.0
 40
2.619678972550698
100
AcDbArc
 50
270.0
 51
90.0
  0
LINE
  5
859
330
1F
100
AcDbEntity
  8
防火材
  6
Continuous
370
    13
100
AcDbLine
 10
552.4812269789686
 20
394.0509206493743
 30
0.0
 11
537.1009863848441
 21
396.670599621925
 31
0.0
  0
LINE
  5
85A
330
1F
100
AcDbEntity
  8
防火材
  6
Continuous
370
    13
100
AcDbLine
 10
537.1009863848436
 20
391.4312416768237
 30
0.0
 11
552.4812269789686
 21
394.0509206493743
 31
0.0
  0
ARC
  5
85B
330
1F
100
AcDbEntity
  8
防火材
  6
Continuous
370
    13
100
AcDbCircle
 10
537.1009863848436
 20
394.0509206493743
 30
0.0
 40
2.619678972550698
100
AcDbArc
 50
90.0
 51
270.0
  0
LINE
  5
85C
330
1F
100
AcDbEntity
  8
防火材
  6
Continuous
370
    13
100
AcDbLine
 10
552.4812269789686
 20
387.9245413982808
 30
0.0
 11
537.1009863848441
 21
390.5442203708314
 31
0.0
  0
LINE
  5
85D
330
1F
100
AcDbEntity
  8
防火材
  6
Continuous
370
    13
100
AcDbLine
 10
537.1009863848436
 20
385.3048624257301
 30
0.0
 11
552.4812269789686
 21
387.9245413982808
 31
0.0
  0
ARC
  5
85E
330
1F
100
AcDbEntity
  8
防火材
  6
Continuous
370
    13
100
AcDbCircle
 10
537.1009863848436
 20
387.9245413982808
 30
0.0
 40
2.619678972550698
100
AcDbArc
 50
90.0
 51
270.0
  0
LINE
  5
85F
330
1F
100
AcDbEntity
  8
防火材
  6
Continuous
370
    13
100
AcDbLine
 10
534.5129275997442
 20
390.9850381290167
 30
0.0
 11
549.8931681938686
 21
393.6047171015673
 31
0.0
  0
LINE
  5
860
330
1F
100
AcDbEntity
  8
防火材
  6
Continuous
370
    13
100
AcDbLine
 10
549.8931681938691
 20
388.365359156466
 30
0.0
 11
534.5129275997442
 21
390.9850381290167
 31
0.0
  0
ARC
  5
861
330
1F
100
AcDbEntity
  8
防火材
  6
Continuous
370
    13
100
AcDbCircle
 10
549.8931681938691
 20
390.9850381290167
 30
0.0
 40
2.619678972550698
100
AcDbArc
 50
270.0
 51
90.0
  0
LINE
  5
862
330
1F
100
AcDbEntity
  8
防火材
  6
Continuous
370
    13
100
AcDbLine
 10
534.5129275997442
 20
384.8586588779231
 30
0.0
 11
549.8931681938686
 21
387.4783378504737
 31
0.0
  0
LINE
  5
863
330
1F
100
AcDbEntity
  8
防火材
  6
Continuous
370
    13
100
AcDbLine
 10
549.8931681938691
 20
382.2389799053724
 30
0.0
 11
534.5129275997442
 21
384.8586588779231
 31
0.0
  0
ARC
  5
864
330
1F
100
AcDbEntity
  8
防火材
  6
Continuous
370
    13
100
AcDbCircle
 10
549.8931681938691
 20
384.8586588779231
 30
0.0
 40
2.619678972550698
100
AcDbArc
 50
270.0
 51
90.0
  0
LINE
  5
865
330
1F
100
AcDbEntity
  8
防火材
  6
Continuous
370
    13
100
AcDbLine
 10
552.4812269789686
 20
381.7981621471872
 30
0.0
 11
537.1009863848441
 21
384.4178411197379
 31
0.0
  0
LINE
  5
866
330
1F
100
AcDbEntity
  8
防火材
  6
Continuous
370
    13
100
AcDbLine
 10
537.1009863848436
 20
379.1784831746365
 30
0.0
 11
552.4812269789686
 21
381.7981621471872
 31
0.0
  0
ARC
  5
867
330
1F
100
AcDbEntity
  8
防火材
  6
Continuous
370
    13
100
AcDbCircle
 10
537.1009863848436
 20
381.7981621471872
 30
0.0
 40
2.619678972550698
100
AcDbArc
 50
90.0
 51
270.0
  0
LINE
  5
868
330
1F
100
AcDbEntity
  8
防火材
  6
Continuous
370
    13
100
AcDbLine
 10
552.4812269789686
 20
375.6717828960936
 30
0.0
 11
537.1009863848441
 21
378.2914618686443
 31
0.0
  0
LINE
  5
869
330
1F
100
AcDbEntity
  8
防火材
  6
Continuous
370
    13
100
AcDbLine
 10
543.9180542682939
 20
374.2132385156472
 30
0.0
 11
552.4812269789686
 21
375.6717828960936
 31
0.0
  0
ARC
  5
86A
330
1F
100
AcDbEntity
  8
防火材
  6
Continuous
370
    13
100
AcDbCircle
 10
537.1009863848436
 20
375.6717828960936
 30
0.0
 40
2.619678972550698
100
AcDbArc
 50
90.0
 51
113.0414926468214
  0
LINE
  5
86B
330
1F
100
AcDbEntity
  8
防火材
  6
Continuous
370
    13
100
AcDbLine
 10
534.5129275997442
 20
378.7322796268295
 30
0.0
 11
549.8931681938686
 21
381.3519585993802
 31
0.0
  0
LINE
  5
86C
330
1F
100
AcDbEntity
  8
防火材
  6
Continuous
370
    13
100
AcDbLine
 10
549.8931681938691
 20
376.1126006542788
 30
0.0
 11
534.5129275997442
 21
378.7322796268295
 31
0.0
  0
ARC
  5
86D
330
1F
100
AcDbEntity
  8
防火材
  6
Continuous
370
    13
100
AcDbCircle
 10
549.8931681938691
 20
378.7322796268295
 30
0.0
 40
2.619678972550698
100
AcDbArc
 50
270.0
 51
90.0
  0
LINE
  5
86E
330
1F
100
AcDbEntity
  8
防火材
  6
Continuous
370
    13
100
AcDbLine
 10
543.922565898366
 20
374.2086211810024
 30
0.0
 11
549.8931681938686
 21
375.2255793482866
 31
0.0
  0
ARC
  5
86F
330
1F
100
AcDbEntity
  8
防火材
  6
Continuous
370
    13
100
AcDbCircle
 10
549.8931681938691
 20
372.6059003757359
 30
0.0
 40
2.619678972550698
100
AcDbArc
 50
329.8646642721731
 51
90.0
  0
LINE
  5
870
330
1F
100
AcDbEntity
  8
防火材
  6
Continuous
370
    13
100
AcDbLine
 10
534.5129275997442
 20
415.4905551333909
 30
0.0
 11
536.3209803283897
 21
415.7985163571122
 31
0.0
  0
LINE
  5
871
330
1F
100
AcDbEntity
  8
防火材
  6
Continuous
370
    13
100
AcDbLine
 10
549.8931681938691
 20
412.8708761608402
 30
0.0
 11
534.5129275997442
 21
415.4905551333909
 31
0.0
  0
ARC
  5
872
330
1F
100
AcDbEntity
  8
防火材
  6
Continuous
370
    13
100
AcDbCircle
 10
549.8931681938691
 20
415.4905551333909
 30
0.0
 40
2.619678972550698
100
AcDbArc
 50
270.0
 51
8.063078899089603
  0
LINE
  5
873
330
1F
100
AcDbEntity
  8
図面枠
  6
Continuous
370
    13
100
AcDbLine
 10
607.588163319698
 20
286.6990882321551
 30
0.0
 11
416.3192774463598
 21
286.6990882321551
 31
0.0
  0
MTEXT
  5
874
330
1F
100
AcDbEntity
  8
文字
  6
Continuous
370
    13
100
AcDbMText
 10
421.4851652623607
 20
299.6309362064335
 30
0.0
 40
2.0
 41
30.73155332927162
 46
0.0
 71
     1
 72
     5
  1
遮音性能
 73
     1
 44
0.75
101
Embedded Object
 70
     1
 10
1.0
 20
0.0
 30
0.0
 11
421.4851652623607
 21
299.6309362064335
 31
0.0
 40
30.73155332927162
 41
0.0
 42
11.36363636363636
 43
2.625
 71
     2
 72
     1
 44
30.73155332927162
 45
0.8849620939533352
 73
     0
 74
     0
 46
2.580461047574065
  0
MTEXT
  5
875
330
1F
100
AcDbEntity
  8
文字
  6
Continuous
370
    13
100
AcDbMText
 10
523.4547984117353
 20
299.6309362064335
 30
0.0
 40
2.0
 41
86.4769764828617
 46
0.0
 71
     1
 72
     5
  1
{\fMS PGothic|b0|i0|c128|p50;遮音レベル：Ｄ}-{\fMS PGothic|b0|i0|c128|p50;６０\P\P※中空間仕切遮音壁　試験体構造は\P   ダンシール®-ラクパテ®遮音試験報告書（FT技第72436Ｃ号）参照}
 73
     1
 44
0.75
101
Embedded Object
 70
     1
 10
1.0
 20
0.0
 30
0.0
 11
523.4547984117353
 21
299.6309362064335
 31
0.0
 40
86.4769764828617
 41
0.0
 42
82.06818181818182
 43
10.77840909090909
 71
     2
 72
     1
 44
86.4769764828617
 45
0.8849620939533352
 73
     0
 74
     0
 46
17.01271571187053
  0
LINE
  5
876
330
1F
100
AcDbEntity
  8
図面枠
  6
Continuous
370
    13
100
AcDbLine
 10
448.9730399563334
 20
301.2270279290033
 30
0.0
 11
448.9730399563334
 21
286.6990882321551
 31
0.0
  0
MTEXT
  5
877
330
1F
100
AcDbEntity
  8
文字
  6
Continuous
370
    13
100
AcDbMText
 10
455.7869164681493
 20
299.6309362064335
 30
0.0
 40
2.0
 41
48.26471193535453
 46
0.0
 71
     1
 72
     5
  1
規格：ＪＩＳＡ１４１６　音響塚損失試験\P測定：（一財）建材試験センター
 73
     1
 44
0.75
101
Embedded Object
 70
     1
 10
1.0
 20
0.0
 30
0.0
 11
455.7869164681493
 21
299.6309362064335
 31
0.0
 40
48.26471193535453
 41
0.0
 42
44.07954545454545
 43
5.446022727272727
 71
     2
 72
     1
 44
48.26471193535453
 45
0.8849620939533352
 73
     0
 74
     0
 46
7.652803473535161
  0
MTEXT
  5
878
330
1F
100
AcDbEntity
  8
文字
  6
Continuous
370
    13
100
AcDbMText
 10
421.4851652623607
 20
315.5602538975941
 30
0.0
 40
2.0
 41
30.73155332927162
 46
0.0
 71
     1
 72
     5
  1
{\fMS PGothic|b0|i0|c128|p50;非耐火パテ}
 73
     1
 44
0.75
101
Embedded Object
 70
     1
 10
1.0
 20
0.0
 30
0.0
 11
421.4851652623607
 21
315.5602538975941
 31
0.0
 40
30.73155332927162
 41
0.0
 42
13.84090909090909
 43
2.579545454545455
 71
     2
 72
     1
 44
30.73155332927162
 45
0.8849620939533352
 73
     0
 74
     0
 46
2.580461047574065
  0
MTEXT
  5
879
330
1F
100
AcDbEntity
  8
文字
  6
Continuous
370
    13
100
AcDbMText
 10
523.4547984117353
 20
315.5602538975941
 30
0.0
 40
2.0
 41
60.85212461073424
 46
0.0
 71
     1
 72
     5
  1
{\fMS PGothic|b0|i0|c128|p50;ダンシール-ラクパテ}
 73
     1
 44
0.75
101
Embedded Object
 70
     1
 10
1.0
 20
0.0
 30
0.0
 11
523.4547984117353
 21
315.5602538975941
 31
0.0
 40
60.85212461073424
 41
0.0
 42
24.85227272727273
 43
2.681818181818182
 71
     2
 72
     1
 44
60.85212461073424
 45
0.8849620939533352
 73
     0
 74
     0
 46
5.45832814859634
  0
LINE
  5
87A
330
1F
100
AcDbEntity
  8
図面枠
  6
Continuous
370
    13
100
AcDbLine
 10
607.588163319698
 20
317.1563456201641
 30
0.0
 11
416.3192774463598
 21
317.1563456201641
 31
0.0
  0
ENDSEC
  0
SECTION
  2
OBJECTS
  0
DICTIONARY
  5
C
330
0
100
AcDbDictionary
281
     1
  3
ACAD_CIP_PREVIOUS_PRODUCT_INFO
350
216
  3
ACAD_COLOR
350
6B
  3
ACAD_DETAILVIEWSTYLE
350
21B
  3
ACAD_GROUP
350
D
  3
ACAD_LAYOUT
350
1A
  3
ACAD_MATERIAL
350
6A
  3
ACAD_MLEADERSTYLE
350
12D
  3
ACAD_MLINESTYLE
350
17
  3
ACAD_PLOTSETTINGS
350
19
  3
ACAD_PLOTSTYLENAME
350
E
  3
ACAD_SCALELIST
350
10C
  3
ACAD_SECTIONVIEWSTYLE
350
219
  3
ACAD_TABLESTYLE
350
7E
  3
ACAD_VISUALSTYLE
350
EF
  3
ACDB_RECOMPOSE_DATA
350
8C7
  3
AcDbVariableDictionary
350
5E
  0
DICTIONARY
  5
1FF
330
2
100
AcDbDictionary
280
     1
281
     1
  3
ACAD_LAYERSTATES
360
200
  0
DICTIONARY
  5
13C
330
10
100
AcDbDictionary
280
     1
281
     1
  0
DICTIONARY
  5
28E
330
28D
100
AcDbDictionary
280
     1
281
     1
  0
DICTIONARY
  5
1CE
330
1F
100
AcDbDictionary
280
     1
281
     1
  0
XRECORD
  5
216
102
{ACAD_REACTORS
330
C
102
}
330
C
100
AcDbXrecord
280
     1
300
ACD
300
2023
300

  0
DICTIONARY
  5
6B
102
{ACAD_REACTORS
330
C
102
}
330
C
100
AcDbDictionary
281
     1
  0
DICTIONARY
  5
21B
102
{ACAD_REACTORS
330
C
102
}
330
C
100
AcDbDictionary
281
     1
  3
Imperial24
350
298
  3
Metric50
350
21C
  0
DICTIONARY
  5
D
102
{ACAD_REACTORS
330
C
102
}
330
C
100
AcDbDictionary
281
     1
  0
DICTIONARY
  5
1A
102
{ACAD_REACTORS
330
C
102
}
330
C
100
AcDbDictionary
281
     1
  3
Model
350
22
  3
レイアウト1
350
D3
  3
レイアウト2
350
D7
  0
DICTIONARY
  5
6A
102
{ACAD_REACTORS
330
C
102
}
330
C
100
AcDbDictionary
281
     1
  3
ByBlock
350
ED
  3
ByLayer
350
EC
  3
Global
350
EE
  0
DICTIONARY
  5
12D
102
{ACAD_REACTORS
330
C
102
}
330
C
100
AcDbDictionary
281
     1
  3
Annotative
350
13B
  3
Standard
350
12E
  0
DICTIONARY
  5
17
102
{ACAD_REACTORS
330
C
102
}
330
C
100
AcDbDictionary
281
     1
  3
Standard
350
18
  0
DICTIONARY
  5
19
102
{ACAD_REACTORS
330
C
102
}
330
C
100
AcDbDictionary
281
     1
  3
セットアップ1
350
886
  0
ACDBDICTIONARYWDFLT
  5
E
102
{ACAD_REACTORS
330
C
102
}
330
C
100
AcDbDictionary
281
     1
  3
Normal
350
F
100
AcDbDictionaryWithDefault
340
F
  0
DICTIONARY
  5
10C
102
{ACAD_REACTORS
330
C
102
}
330
C
100
AcDbDictionary
281
     1
  3
A0
350
10D
  3
A1
350
1BE
  3
A2
350
1BF
  3
A3
350
1C0
  3
A4
350
1C1
  3
A5
350
1C2
  3
A6
350
1C3
  3
A7
350
1C4
  3
A8
350
1C5
  3
A9
350
1C6
  3
B0
350
1C7
  3
B1
350
1C8
  3
B2
350
1C9
  3
B3
350
1CA
  3
B4
350
1CB
  3
B5
350
1CC
  3
B6
350
1CD
  0
DICTIONARY
  5
219
102
{ACAD_REACTORS
330
C
102
}
330
C
100
AcDbDictionary
281
     1
  3
Imperial24
350
297
  3
Metric50
350
21A
  0
DICTIONARY
  5
7E
102
{ACAD_REACTORS
330
C
102
}
330
C
100
AcDbDictionary
281
     1
  3
Standard
350
7F
  0
DICTIONARY
  5
EF
102
{ACAD_REACTORS
330
C
102
}
330
C
100
AcDbDictionary
281
     1
  3
2dWireframe
350
F5
  3
Basic
350
F4
  3
Brighten
350
FB
  3
ColorChange
350
FF
  3
Conceptual
350
F8
  3
Dim
350
FA
  3
EdgeColorOff
350
1E6
  3
Facepattern
350
FE
  3
Flat
350
F0
  3
FlatWithEdges
350
F1
  3
Gouraud
350
F2
  3
GouraudWithEdges
350
F3
  3
Hidden
350
F7
  3
JitterOff
350
1E4
  3
Linepattern
350
FD
  3
OverhangOff
350
1E5
  3
Realistic
350
F9
  3
Shaded
350
1F3
  3
Shaded with edges
350
1F2
  3
Shades of Gray
350
1EF
  3
Sketchy
350
1F0
  3
Thicken
350
FC
  3
Wireframe
350
F6
  3
X-Ray
350
1F1
  0
XRECORD
  5
8C7
102
{ACAD_REACTORS
330
C
102
}
330
C
100
AcDbXrecord
280
     1
 90
        1
330
7F
  0
DICTIONARY
  5
5E
102
{ACAD_REACTORS
330
C
102
}
330
C
100
AcDbDictionary
281
     1
  3
CANNOSCALE
350
146
  3
CENTEREXE
350
259
  3
CENTERLTYPEFILE
350
25A
  3
CMLEADERSTYLE
350
145
  3
CTABLESTYLE
350
84
  3
CVIEWDETAILSTYLE
350
227
  3
CVIEWSECTIONSTYLE
350
228
  3
DIMASSOC
350
5F
  3
HIDETEXT
350
63
  3
LAYEREVAL
350
1AE
  3
LAYERNOTIFY
350
1AF
  0
DICTIONARY
  5
200
102
{ACAD_REACTORS
330
1FF
102
}
330
1FF
100
AcDbDictionary
281
     1
  0
ACDBDETAILVIEWSTYLE
  5
298
102
{ACAD_REACTORS
330
21B
102
}
330
21B
100
AcDbModelDocViewStyle
 70
     0
  3
Imperial24
290
     0
300
Imperial24
 90
        0
100
AcDbDetailViewStyle
 70
     0
 71
     0
 90
        3
 71
     1
340
11
 62
   256
 40
0.24
340
0
 62
   256
 40
0.24
300

 40
0.36
280
     3
 71
     2
340
16
 90
       25
 62
   256
 71
     3
340
11
 62
   256
 40
0.24
 90
        1
 40
0.75
 90
        1
300
%<\AcVar ViewType \f "%tc1">% %<\AcVar ViewDetailId>%\PSCALE %<\AcVar ViewScale \f "%sn">%
 71
     4
340
16
 90
       25
 62
   256
340
16
 90
       25
 62
   256
280
     0
  0
ACDBDETAILVIEWSTYLE
  5
21C
102
{ACAD_REACTORS
330
21B
102
}
330
21B
100
AcDbModelDocViewStyle
 70
     0
  3
Metric50
290
     0
300
Metric50
 90
        0
100
AcDbDetailViewStyle
 70
     0
 71
     0
 90
        3
 71
     1
340
11
 62
   256
 40
5.0
340
0
 62
   256
 40
5.0
300

 40
0.0
280
     1
 71
     2
340
16
 90
       25
 62
   256
 71
     3
340
11
 62
   256
 40
5.0
 90
        0
 40
15.0
 90
        1
300
%<\AcVar ViewDetailId>% (%<\AcVar ViewScale \f "%sn">%)
 71
     4
340
16
 90
       25
 62
   256
340
16
 90
       25
 62
   256
280
     0
  0
LAYOUT
  5
22
102
{ACAD_XDICTIONARY
360
205
102
}
102
{ACAD_REACTORS
330
1A
102
}
330
1A
100
AcDbPlotSettings
  1
セットアップ1
  2
Adobe PDF
  4
A4
  6

 40
3.174999952316284
 41
3.174999952316284
 42
3.175003051757812
 43
3.17498779296875
 44
209.9733276367187
 45
297.0318298339844
 46
0.0
 47
1.3501414826938
 48
406.9537203830289
 49
233.2066530597485
140
616.9537203830288
141
530.2066530597485
142
1.0
143
1.031316036013356
 70
 11956
 72
     1
 73
     0
 74
     4
  7

 75
     0
147
0.9696348792030697
 76
     0
 77
     2
 78
   300
148
-406.9537203830289
149
-233.2066530597485
100
AcDbLayout
  1
Model
 70
     1
 71
     0
 10
0.0
 20
0.0
 11
12.0
 21
9.0
 12
0.0
 22
0.0
 32
0.0
 14
0.0
 24
0.0
 34
0.0
 15
0.0
 25
0.0
 35
0.0
146
0.0
 13
0.0
 23
0.0
 33
0.0
 16
1.0
 26
0.0
 36
0.0
 17
0.0
 27
1.0
 37
0.0
 76
     0
330
1F
331
EA
1001
ACAD_PSEXT
1000
Adobe PDF
1000
Adobe PDF Converter
1000
Documents\*.pdf
1000

1070
     0
  0
LAYOUT
  5
D3
102
{ACAD_REACTORS
330
1A
102
}
330
1A
100
AcDbPlotSettings
  1

  2
C:\Documents and Settings\basas\Application Data\Autodesk\AutoCAD 2005\R16.1\enu\plotters\Default Windows System Printer.pc3
  4

  6

 40
0.0
 41
0.0
 42
0.0
 43
0.0
 44
0.0
 45
0.0
 46
0.0
 47
0.0
 48
0.0
 49
0.0
140
0.0
141
0.0
142
1.0
143
1.0
 70
   688
 72
     0
 73
     0
 74
     5
  7

 75
    16
147
1.0
 76
     0
 77
     2
 78
   300
148
0.0
149
0.0
100
AcDbLayout
  1
レイアウト1
 70
     1
 71
     1
 10
0.0
 20
0.0
 11
12.0
 21
9.0
 12
0.0
 22
0.0
 32
0.0
 14
0.0
 24
0.0
 34
0.0
 15
0.0
 25
0.0
 35
0.0
146
0.0
 13
0.0
 23
0.0
 33
0.0
 16
1.0
 26
0.0
 36
0.0
 17
0.0
 27
1.0
 37
0.0
 76
     0
330
D2
  0
LAYOUT
  5
D7
102
{ACAD_REACTORS
330
1A
102
}
330
1A
100
AcDbPlotSettings
  1

  2
C:\Documents and Settings\basas\Application Data\Autodesk\AutoCAD 2005\R16.1\enu\plotters\Default Windows System Printer.pc3
  4

  6

 40
0.0
 41
0.0
 42
0.0
 43
0.0
 44
0.0
 45
0.0
 46
0.0
 47
0.0
 48
0.0
 49
0.0
140
0.0
141
0.0
142
1.0
143
1.0
 70
   688
 72
     0
 73
     0
 74
     5
  7

 75
    16
147
1.0
 76
     0
 77
     2
 78
   300
148
0.0
149
0.0
100
AcDbLayout
  1
レイアウト2
 70
     1
 71
     2
 10
0.0
 20
0.0
 11
12.0
 21
9.0
 12
0.0
 22
0.0
 32
0.0
 14
0.0
 24
0.0
 34
0.0
 15
0.0
 25
0.0
 35
0.0
146
0.0
 13
0.0
 23
0.0
 33
0.0
 16
1.0
 26
0.0
 36
0.0
 17
0.0
 27
1.0
 37
0.0
 76
     0
330
D6
  0
MATERIAL
  5
ED
102
{ACAD_XDICTIONARY
360
1F9
102
}
102
{ACAD_REACTORS
330
6A
102
}
330
6A
100
AcDbMaterial
  1
ByBlock
 94
       63
  0
MATERIAL
  5
EC
102
{ACAD_XDICTIONARY
360
1F7
102
}
102
{ACAD_REACTORS
330
6A
102
}
330
6A
100
AcDbMaterial
  1
ByLayer
 94
       63
  0
MATERIAL
  5
EE
102
{ACAD_XDICTIONARY
360
173
102
}
102
{ACAD_REACTORS
330
6A
102
}
330
6A
100
AcDbMaterial
  1
Global
 43
0.0007999999797903
 43
0.0
 43
0.0
 43
0.0
 43
0.0
 43
0.0007999999797903
 43
0.0
 43
0.0
 43
0.0
 43
0.0
 43
1.0
 43
0.0
 43
0.0
 43
0.0
 43
0.0
 43
1.0
 49
0.0007999999797903
 49
0.0
 49
0.0
 49
0.0
 49
0.0
 49
0.0007999999797903
 49
0.0
 49
0.0
 49
0.0
 49
0.0
 49
1.0
 49
0.0
 49
0.0
 49
0.0
 49
0.0
 49
1.0
142
0.0007999999797903
142
0.0
142
0.0
142
0.0
142
0.0
142
0.0007999999797903
142
0.0
142
0.0
142
0.0
142
0.0
142
1.0
142
0.0
142
0.0
142
0.0
142
0.0
142
1.0
144
0.0007999999797903
144
0.0
144
0.0
144
0.0
144
0.0
144
0.0007999999797903
144
0.0
144
0.0
144
0.0
144
0.0
144
1.0
144
0.0
144
0.0
144
0.0
144
0.0
144
1.0
 94
       63
1001
ACAD
1070
    -1
1070
     3
1070
     0
1000

1071
        0
1070
     0
  0
MLEADERSTYLE
  5
13B
102
{ACAD_REACTORS
330
12D
102
}
330
12D
100
AcDbMLeaderStyle
179
     2
170
     2
171
     1
172
     0
 90
        2
 40
0.0
 41
0.0
173
     1
 91
-1056964608
340
14
 92
       -2
290
     1
 42
2.0
291
     1
 43
8.0
  3
Standard
 44
4.0
300

342
11
174
     1
178
     1
175
     1
176
     0
 93
-1056964608
 45
4.0
292
     0
297
     0
 46
4.0
 94
-1056964608
 47
1.0
 49
1.0
140
1.0
293
     1
141
0.0
294
     1
177
     0
142
1.0
295
     0
296
     1
143
3.75
271
     0
272
     9
273
     9
298
     0
  0
MLEADERSTYLE
  5
12E
102
{ACAD_REACTORS
330
12D
330
594
330
6F0
330
75D
330
760
102
}
330
12D
100
AcDbMLeaderStyle
179
     2
170
     2
171
     1
172
     0
 90
        2
 40
0.0
 41
0.0
173
     1
 91
-1056964608
340
14
 92
       -2
290
     1
 42
2.0
291
     1
 43
8.0
  3
Standard
 44
4.0
300

342
11
174
     1
178
     1
175
     1
176
     0
 93
-1056964608
 45
4.0
292
     0
297
     0
 46
4.0
 94
-1056964608
 47
1.0
 49
1.0
140
1.0
293
     1
141
0.0
294
     1
177
     0
142
1.0
295
     0
296
     0
143
3.75
271
     0
272
     9
273
     9
298
     0
  0
MLINESTYLE
  5
18
102
{ACAD_REACTORS
330
17
102
}
330
17
100
AcDbMlineStyle
  2
STANDARD
 70
     0
  3

 62
   256
 51
90.0
 52
90.0
 71
     2
 49
0.5
 62
   256
  6
BYLAYER
 49
-0.5
 62
   256
  6
BYLAYER
  0
PLOTSETTINGS
  5
886
102
{ACAD_REACTORS
330
19
102
}
330
19
100
AcDbPlotSettings
  1
セットアップ1
  2
Adobe PDF
  4
A4
  6

 40
3.174999952316284
 41
3.174999952316284
 42
3.175003051757812
 43
3.17498779296875
 44
209.9733276367187
 45
297.0318298339844
 46
0.0
 47
1.3501414826938
 48
406.9537203830289
 49
233.2066530597485
140
616.9537203830288
141
530.2066530597485
142
1.0
143
1.031316036013356
 70
 11956
 72
     1
 73
     0
 74
     4
  7

 75
     0
147
0.9696348792030697
 76
     0
 77
     2
 78
   300
148
-406.9537203830289
149
-233.2066530597485
1001
ACAD_PSEXT
1000
Adobe PDF
1000
Adobe PDF Converter
1000
Documents\*.pdf
1000

1070
     0
  0
ACDBPLACEHOLDER
  5
F
102
{ACAD_REACTORS
330
E
102
}
330
E
  0
SCALE
  5
10D
102
{ACAD_REACTORS
330
10C
102
}
330
10C
100
AcDbScale
 70
     0
300
1:1
140
1.0
141
1.0
290
     1
  0
SCALE
  5
1BE
102
{ACAD_REACTORS
330
10C
102
}
330
10C
100
AcDbScale
 70
     0
300
1:2
140
1.0
141
2.0
290
     0
  0
SCALE
  5
1BF
102
{ACAD_REACTORS
330
10C
102
}
330
10C
100
AcDbScale
 70
     0
300
1:4
140
1.0
141
4.0
290
     0
  0
SCALE
  5
1C0
102
{ACAD_REACTORS
330
10C
102
}
330
10C
100
AcDbScale
 70
     0
300
1:5
140
1.0
141
5.0
290
     0
  0
SCALE
  5
1C1
102
{ACAD_REACTORS
330
10C
102
}
330
10C
100
AcDbScale
 70
     0
300
1:8
140
1.0
141
8.0
290
     0
  0
SCALE
  5
1C2
102
{ACAD_REACTORS
330
10C
102
}
330
10C
100
AcDbScale
 70
     0
300
1:10
140
1.0
141
10.0
290
     0
  0
SCALE
  5
1C3
102
{ACAD_REACTORS
330
10C
102
}
330
10C
100
AcDbScale
 70
     0
300
1:16
140
1.0
141
16.0
290
     0
  0
SCALE
  5
1C4
102
{ACAD_REACTORS
330
10C
102
}
330
10C
100
AcDbScale
 70
     0
300
1:20
140
1.0
141
20.0
290
     0
  0
SCALE
  5
1C5
102
{ACAD_REACTORS
330
10C
102
}
330
10C
100
AcDbScale
 70
     0
300
1:30
140
1.0
141
30.0
290
     0
  0
SCALE
  5
1C6
102
{ACAD_REACTORS
330
10C
102
}
330
10C
100
AcDbScale
 70
     0
300
1:40
140
1.0
141
40.0
290
     0
  0
SCALE
  5
1C7
102
{ACAD_REACTORS
330
10C
102
}
330
10C
100
AcDbScale
 70
     0
300
1:50
140
1.0
141
50.0
290
     0
  0
SCALE
  5
1C8
102
{ACAD_REACTORS
330
10C
102
}
330
10C
100
AcDbScale
 70
     0
300
1:100
140
1.0
141
100.0
290
     0
  0
SCALE
  5
1C9
102
{ACAD_REACTORS
330
10C
102
}
330
10C
100
AcDbScale
 70
     0
300
2:1
140
2.0
141
1.0
290
     0
  0
SCALE
  5
1CA
102
{ACAD_REACTORS
330
10C
102
}
330
10C
100
AcDbScale
 70
     0
300
4:1
140
4.0
141
1.0
290
     0
  0
SCALE
  5
1CB
102
{ACAD_REACTORS
330
10C
102
}
330
10C
100
AcDbScale
 70
     0
300
8:1
140
8.0
141
1.0
290
     0
  0
SCALE
  5
1CC
102
{ACAD_REACTORS
330
10C
102
}
330
10C
100
AcDbScale
 70
     0
300
10:1
140
10.0
141
1.0
290
     0
  0
SCALE
  5
1CD
102
{ACAD_REACTORS
330
10C
102
}
330
10C
100
AcDbScale
 70
     0
300
100:1
140
100.0
141
1.0
290
     0
  0
ACDBSECTIONVIEWSTYLE
  5
297
102
{ACAD_REACTORS
330
219
102
}
330
219
100
AcDbModelDocViewStyle
 70
     0
  3
Imperial24
290
     0
300
Imperial24
 90
        0
100
AcDbSectionViewStyle
 70
     0
 71
     0
 90
       78
 71
     1
340
11
 62
   256
 40
0.24
340
0
340
0
 62
   256
 40
0.24
300
I, O, Q, S, X, Z
 40
0.48
 90
        3
 40
0.18
 90
        1
 71
     2
340
16
 90
       25
 62
   256
340
16
 90
       50
 62
   256
 40
0.24
 40
0.0
 40
0.24
 71
     3
340
11
 62
   256
 40
0.24
 90
        1
 40
0.75
 90
        1
300
%<\AcVar ViewType \f "%tc1">% %<\AcVar ViewSectionStartId>%-%<\AcVar ViewSectionEndId>%\PSCALE %<\AcVar ViewScale \f "%sn">%
 71
     4
 62
   256
 62
   257
300
ANSI31
 40
1.0
 90
        0
290
     0
290
     0
 90
        6
 40
0.0
 40
1.570796326794896
 40
0.2617993877991494
 40
1.308996938995747
 40
-0.2617993877991494
 40
1.832595714594046
  0
ACDBSECTIONVIEWSTYLE
  5
21A
102
{ACAD_REACTORS
330
219
102
}
330
219
100
AcDbModelDocViewStyle
 70
     0
  3
Metric50
290
     0
300
Metric50
 90
        0
100
AcDbSectionViewStyle
 70
     0
 71
     0
 90
      102
 71
     1
340
11
 62
   256
 40
5.0
340
0
340
0
 62
   256
 40
5.0
300
I, O, Q, S, X, Z
 40
10.0
 90
        0
 40
2.5
 90
        0
 71
     2
340
16
 90
       25
 62
   256
340
16
 90
       50
 62
   256
 40
5.0
 40
2.5
 40
5.0
 71
     3
340
11
 62
   256
 40
5.0
 90
        0
 40
15.0
 90
        1
300
%<\AcVar ViewSectionStartId>%-%<\AcVar ViewSectionEndId>% (%<\AcVar ViewScale \f "%sn">%)
 71
     4
 62
   256
 62
   257
300
ANSI31
 40
1.0
 90
        0
290
     0
290
     0
 90
        6
 40
0.0
 40
1.570796326794896
 40
0.2617993877991494
 40
1.308996938995747
 40
-0.2617993877991494
 40
1.832595714594046
  0
TABLESTYLE
  5
7F
102
{ACAD_XDICTIONARY
360
162
102
}
102
{ACAD_REACTORS
330
7E
102
}
330
7E
100
AcDbTableStyle
280
     0
  3
Standard
 70
     0
 71
     0
 40
1.5
 41
1.5
280
     0
281
     0
  7
Standard
140
4.5
170
     2
 62
     0
 63
     7
283
     0
 90
      512
 91
        0
  1

274
    -2
284
     1
 64
     0
275
    -2
285
     1
 65
     0
276
    -2
286
     1
 66
     0
277
    -2
287
     1
 67
     0
278
    -2
288
     1
 68
     0
279
    -2
289
     1
 69
     0
  7
Standard
140
6.0
170
     5
 62
     0
 63
     7
283
     0
 90
      512
 91
        0
  1

274
    -2
284
     1
 64
     0
275
    -2
285
     1
 65
     0
276
    -2
286
     1
 66
     0
277
    -2
287
     1
 67
     0
278
    -2
288
     1
 68
     0
279
    -2
289
     1
 69
     0
  7
Standard
140
4.5
170
     5
 62
     0
 63
     7
283
     0
 90
      512
 91
        0
  1

274
    -2
284
     1
 64
     0
275
    -2
285
     1
 65
     0
276
    -2
286
     1
 66
     0
277
    -2
287
     1
 67
     0
278
    -2
288
     1
 68
     0
279
    -2
289
     1
 69
     0
  0
VISUALSTYLE
  5
F5
102
{ACAD_REACTORS
330
EF
102
}
330
EF
100
AcDbVisualStyle
  2
2dWireframe
 70
     4
177
     3
291
     0
 70
    58
 90
        0
176
     1
 90
        2
176
     1
 90
        1
176
     1
 90
        0
176
     1
 40
0.6
176
     1
 40
30.0
176
     1
 62
     7
420
 16777215
176
     1
 90
        1
176
     1
 90
        4
176
     1
 62
     7
176
     1
 62
   257
176
     1
 90
        1
176
     1
 90
        1
176
     1
 40
1.0
176
     1
 90
        0
176
     1
 62
   257
176
     1
 40
1.0
176
     1
 90
        1
176
     1
 90
        6
176
     1
 90
        2
176
     1
 62
     7
176
     1
 90
        5
176
     1
 90
        0
176
     1
 90
        0
176
     1
290
     0
176
     1
 90
        1
176
     1
 40
0.0
176
     1
 90
        0
176
     1
290
     1
176
     1
290
     1
176
     1
290
     0
176
     1
290
     0
176
     1
290
     0
176
     1
290
     0
176
     1
290
     0
176
     1
290
     0
176
     1
290
     0
176
     1
 90
       50
176
     1
 40
0.0
176
     1
 40
1.0
176
     1
 90
        0
176
     1
 62
    18
420
        0
176
     1
 90
       50
176
     1
 90
        3
176
     1
 62
     5
420
      255
176
     1
290
     0
176
     1
 90
       50
176
     1
 90
       50
176
     1
 90
       50
176
     1
290
     0
176
     1
 90
       50
176
     1
 62
   256
176
     0
 40
1.0
176
     0
 90
        2
176
     1
  1
strokes_ogs.tif
176
     1
290
     0
176
     1
 40
1.0
176
     1
 40
1.0
176
     1
  0
VISUALSTYLE
  5
F4
102
{ACAD_REACTORS
330
EF
102
}
330
EF
100
AcDbVisualStyle
  2
Basic
 70
     7
177
     3
291
     1
 70
    58
 90
        1
176
     1
 90
        0
176
     1
 90
        1
176
     1
 90
        0
176
     1
 40
0.6
176
     1
 40
30.0
176
     1
 62
     7
420
 16777215
176
     1
 90
        0
176
     1
 90
        4
176
     1
 62
     7
176
     1
 62
   257
176
     1
 90
        1
176
     1
 90
        1
176
     1
 40
1.0
176
     1
 90
        8
176
     1
 62
     7
176
     1
 40
1.0
176
     1
 90
        1
176
     1
 90
        6
176
     1
 90
        2
176
     1
 62
     7
176
     1
 90
        5
176
     1
 90
        0
176
     1
 90
        0
176
     1
290
     0
176
     1
 90
        1
176
     1
 40
0.0
176
     1
 90
        0
176
     1
290
     0
176
     1
290
     1
176
     1
290
     1
176
     1
290
     0
176
     1
290
     0
176
     1
290
     0
176
     1
290
     0
176
     1
290
     0
176
     1
290
     0
176
     1
 90
       50
176
     1
 40
0.0
176
     1
 40
1.0
176
     1
 90
        0
176
     1
 62
    18
420
        0
176
     1
 90
       50
176
     1
 90
        3
176
     1
 62
     5
420
      255
176
     1
290
     0
176
     1
 90
       50
176
     1
 90
       50
176
     1
 90
       50
176
     1
290
     0
176
     1
 90
       50
176
     1
 62
   256
176
     0
 40
1.0
176
     0
 90
        2
176
     1
  1
strokes_ogs.tif
176
     1
290
     0
176
     1
 40
1.0
176
     1
 40
1.0
176
     1
  0
VISUALSTYLE
  5
FB
102
{ACAD_REACTORS
330
EF
102
}
330
EF
100
AcDbVisualStyle
  2
Brighten
 70
    12
177
     3
291
     1
 70
    58
 90
        2
176
     1
 90
        2
176
     1
 90
        1
176
     1
 90
        0
176
     1
 40
0.6
176
     1
 40
30.0
176
     1
 62
     7
420
 16777215
176
     1
 90
        1
176
     1
 90
        4
176
     1
 62
     7
176
     1
 62
   257
176
     1
 90
        1
176
     1
 90
        1
176
     1
 40
1.0
176
     1
 90
        8
176
     1
 62
     7
176
     1
 40
1.0
176
     1
 90
        1
176
     1
 90
        6
176
     1
 90
        2
176
     1
 62
     7
176
     1
 90
        5
176
     1
 90
        0
176
     1
 90
        0
176
     1
290
     0
176
     1
 90
        1
176
     1
 40
50.0
176
     1
 90
        0
176
     1
290
     0
176
     1
290
     1
176
     1
290
     1
176
     1
290
     0
176
     1
290
     0
176
     1
290
     0
176
     1
290
     0
176
     1
290
     0
176
     1
290
     0
176
     1
 90
       50
176
     1
 40
0.0
176
     1
 40
1.0
176
     1
 90
        0
176
     1
 62
    18
420
        0
176
     1
 90
       50
176
     1
 90
        3
176
     1
 62
     5
420
      255
176
     1
290
     0
176
     1
 90
       50
176
     1
 90
       50
176
     1
 90
       50
176
     1
290
     0
176
     1
 90
       50
176
     1
 62
   256
176
     0
 40
1.0
176
     0
 90
        2
176
     1
  1
strokes_ogs.tif
176
     1
290
     0
176
     1
 40
1.0
176
     1
 40
1.0
176
     1
  0
VISUALSTYLE
  5
FF
102
{ACAD_REACTORS
330
EF
102
}
330
EF
100
AcDbVisualStyle
  2
ColorChange
 70
    16
177
     3
291
     1
 70
    58
 90
        2
176
     1
 90
        2
176
     1
 90
        3
176
     1
 90
        0
176
     1
 40
0.6
176
     1
 40
30.0
176
     1
 62
     8
420
  8421504
176
     1
 90
        1
176
     1
 90
        4
176
     1
 62
     7
176
     1
 62
   257
176
     1
 90
        1
176
     1
 90
        1
176
     1
 40
1.0
176
     1
 90
        8
176
     1
 62
     8
420
  8421504
176
     1
 40
1.0
176
     1
 90
        1
176
     1
 90
        6
176
     1
 90
        2
176
     1
 62
     7
176
     1
 90
        5
176
     1
 90
        0
176
     1
 90
        0
176
     1
290
     0
176
     1
 90
        1
176
     1
 40
0.0
176
     1
 90
        0
176
     1
290
     0
176
     1
290
     1
176
     1
290
     1
176
     1
290
     0
176
     1
290
     0
176
     1
290
     0
176
     1
290
     0
176
     1
290
     0
176
     1
290
     0
176
     1
 90
       50
176
     1
 40
0.0
176
     1
 40
1.0
176
     1
 90
        0
176
     1
 62
    18
420
        0
176
     1
 90
       50
176
     1
 90
        3
176
     1
 62
     5
420
      255
176
     1
290
     0
176
     1
 90
       50
176
     1
 90
       50
176
     1
 90
       50
176
     1
290
     0
176
     1
 90
       50
176
     1
 62
   256
176
     0
 40
1.0
176
     0
 90
        2
176
     1
  1
strokes_ogs.tif
176
     1
290
     0
176
     1
 40
1.0
176
     1
 40
1.0
176
     1
  0
VISUALSTYLE
  5
F8
102
{ACAD_REACTORS
330
EF
102
}
330
EF
100
AcDbVisualStyle
  2
Conceptual
 70
     9
177
     3
291
     0
 70
    58
 90
        3
176
     1
 90
        2
176
     1
 90
        1
176
     1
 90
        0
176
     1
 40
0.6
176
     1
 40
30.0
176
     1
 62
     7
420
 16777215
176
     1
 90
        2
176
     1
 90
        2
176
     1
 62
     7
176
     1
 62
   257
176
     1
 90
        1
176
     1
 90
        1
176
     1
 40
40.0
176
     1
 90
        8
176
     1
 62
     7
176
     1
 40
1.0
176
     1
 90
        1
176
     1
 90
        6
176
     1
 90
        2
176
     1
 62
     7
176
     1
 90
        3
176
     1
 90
        0
176
     1
 90
        0
176
     1
290
     0
176
     1
 90
        1
176
     1
 40
0.0
176
     1
 90
        0
176
     1
290
     0
176
     1
290
     1
176
     1
290
     1
176
     1
290
     0
176
     1
290
     0
176
     1
290
     0
176
     1
290
     0
176
     1
290
     0
176
     1
290
     0
176
     1
 90
       50
176
     1
 40
0.0
176
     1
 40
1.0
176
     1
 90
        0
176
     1
 62
    18
420
        0
176
     1
 90
       50
176
     1
 90
        3
176
     1
 62
     5
420
      255
176
     1
290
     0
176
     1
 90
       50
176
     1
 90
       50
176
     1
 90
       50
176
     1
290
     0
176
     1
 90
       50
176
     1
 62
   256
176
     0
 40
1.0
176
     0
 90
        2
176
     1
  1
strokes_ogs.tif
176
     1
290
     0
176
     1
 40
1.0
176
     1
 40
1.0
176
     1
  0
VISUALSTYLE
  5
FA
102
{ACAD_REACTORS
330
EF
102
}
330
EF
100
AcDbVisualStyle
  2
Dim
 70
    11
177
     3
291
     1
 70
    58
 90
        2
176
     1
 90
        2
176
     1
 90
        1
176
     1
 90
        0
176
     1
 40
0.6
176
     1
 40
30.0
176
     1
 62
     7
420
 16777215
176
     1
 90
        1
176
     1
 90
        4
176
     1
 62
     7
176
     1
 62
   257
176
     1
 90
        1
176
     1
 90
        1
176
     1
 40
1.0
176
     1
 90
        8
176
     1
 62
     7
176
     1
 40
1.0
176
     1
 90
        1
176
     1
 90
        6
176
     1
 90
        2
176
     1
 62
     7
176
     1
 90
        5
176
     1
 90
        0
176
     1
 90
        0
176
     1
290
     0
176
     1
 90
        1
176
     1
 40
-50.0
176
     1
 90
        0
176
     1
290
     0
176
     1
290
     1
176
     1
290
     1
176
     1
290
     0
176
     1
290
     0
176
     1
290
     0
176
     1
290
     0
176
     1
290
     0
176
     1
290
     0
176
     1
 90
       50
176
     1
 40
0.0
176
     1
 40
1.0
176
     1
 90
        0
176
     1
 62
    18
420
        0
176
     1
 90
       50
176
     1
 90
        3
176
     1
 62
     5
420
      255
176
     1
290
     0
176
     1
 90
       50
176
     1
 90
       50
176
     1
 90
       50
176
     1
290
     0
176
     1
 90
       50
176
     1
 62
   256
176
     0
 40
1.0
176
     0
 90
        2
176
     1
  1
strokes_ogs.tif
176
     1
290
     0
176
     1
 40
1.0
176
     1
 40
1.0
176
     1
  0
VISUALSTYLE
  5
1E6
102
{ACAD_REACTORS
330
EF
102
}
330
EF
100
AcDbVisualStyle
  2
EdgeColorOff
 70
    22
177
     3
291
     1
 70
    58
 90
        2
176
     0
 90
        2
176
     0
 90
        0
176
     0
 90
        0
176
     0
 40
0.6
176
     0
 40
30.0
176
     0
 62
     7
420
 16777215
176
     0
 90
        1
176
     0
 90
        4
176
     0
 62
     7
176
     0
 62
   257
176
     0
 90
        1
176
     0
 90
        1
176
     0
 40
1.0
176
     0
 90
        8
176
     2
 62
     7
176
     0
 40
1.0
176
     0
 90
        1
176
     0
 90
        6
176
     0
 90
        2
176
     0
 62
     7
176
     0
 90
        5
176
     0
 90
        0
176
     0
 90
        0
176
     0
290
     0
176
     0
 90
        1
176
     0
 40
0.0
176
     0
 90
        0
176
     0
290
     0
176
     1
290
     1
176
     1
290
     1
176
     1
290
     0
176
     1
290
     0
176
     1
290
     0
176
     1
290
     0
176
     1
290
     0
176
     1
290
     0
176
     1
 90
       50
176
     1
 40
0.0
176
     1
 40
1.0
176
     1
 90
        0
176
     1
 62
    18
420
        0
176
     1
 90
       50
176
     1
 90
        3
176
     1
 62
     5
420
      255
176
     1
290
     0
176
     1
 90
       50
176
     1
 90
       50
176
     1
 90
       50
176
     1
290
     0
176
     1
 90
       50
176
     1
 62
   256
176
     0
 40
1.0
176
     0
 90
        2
176
     1
  1
strokes_ogs.tif
176
     1
290
     0
176
     1
 40
1.0
176
     1
 40
1.0
176
     1
  0
VISUALSTYLE
  5
FE
102
{ACAD_REACTORS
330
EF
102
}
330
EF
100
AcDbVisualStyle
  2
Facepattern
 70
    15
177
     3
291
     1
 70
    58
 90
        2
176
     1
 90
        2
176
     1
 90
        1
176
     1
 90
        0
176
     1
 40
0.6
176
     1
 40
30.0
176
     1
 62
     7
420
 16777215
176
     1
 90
        1
176
     1
 90
        4
176
     1
 62
     7
176
     1
 62
   257
176
     1
 90
        1
176
     1
 90
        1
176
     1
 40
1.0
176
     1
 90
        8
176
     1
 62
     7
176
     1
 40
1.0
176
     1
 90
        1
176
     1
 90
        6
176
     1
 90
        2
176
     1
 62
     7
176
     1
 90
        5
176
     1
 90
        0
176
     1
 90
        0
176
     1
290
     0
176
     1
 90
        1
176
     1
 40
0.0
176
     1
 90
        0
176
     1
290
     0
176
     1
290
     1
176
     1
290
     1
176
     1
290
     0
176
     1
290
     0
176
     1
290
     0
176
     1
290
     0
176
     1
290
     0
176
     1
290
     0
176
     1
 90
       50
176
     1
 40
0.0
176
     1
 40
1.0
176
     1
 90
        0
176
     1
 62
    18
420
        0
176
     1
 90
       50
176
     1
 90
        3
176
     1
 62
     5
420
      255
176
     1
290
     0
176
     1
 90
       50
176
     1
 90
       50
176
     1
 90
       50
176
     1
290
     0
176
     1
 90
       50
176
     1
 62
   256
176
     0
 40
1.0
176
     0
 90
        2
176
     1
  1
strokes_ogs.tif
176
     1
290
     0
176
     1
 40
1.0
176
     1
 40
1.0
176
     1
  0
VISUALSTYLE
  5
F0
102
{ACAD_REACTORS
330
EF
102
}
330
EF
100
AcDbVisualStyle
  2
Flat
 70
     0
177
     3
291
     1
 70
    58
 90
        2
176
     1
 90
        1
176
     1
 90
        1
176
     1
 90
        2
176
     1
 40
0.6
176
     1
 40
30.0
176
     1
 62
     7
420
 16777215
176
     1
 90
        0
176
     1
 90
        0
176
     1
 62
     7
176
     1
 62
   257
176
     1
 90
        1
176
     1
 90
        1
176
     1
 40
1.0
176
     1
 90
        8
176
     1
 62
     7
176
     1
 40
1.0
176
     1
 90
        1
176
     1
 90
        6
176
     1
 90
        2
176
     1
 62
     7
176
     1
 90
        5
176
     1
 90
        0
176
     1
 90
        0
176
     1
290
     0
176
     1
 90
       13
176
     1
 40
0.0
176
     1
 90
        0
176
     1
290
     0
176
     1
290
     1
176
     1
290
     1
176
     1
290
     0
176
     1
290
     0
176
     1
290
     0
176
     1
290
     0
176
     1
290
     0
176
     1
290
     0
176
     1
 90
       50
176
     1
 40
0.0
176
     1
 40
1.0
176
     1
 90
        0
176
     1
 62
    18
420
        0
176
     1
 90
       50
176
     1
 90
        3
176
     1
 62
     5
420
      255
176
     1
290
     0
176
     1
 90
       50
176
     1
 90
       50
176
     1
 90
       50
176
     1
290
     0
176
     1
 90
       50
176
     1
 62
   256
176
     0
 40
1.0
176
     0
 90
        2
176
     1
  1
strokes_ogs.tif
176
     1
290
     0
176
     1
 40
1.0
176
     1
 40
1.0
176
     1
  0
VISUALSTYLE
  5
F1
102
{ACAD_REACTORS
330
EF
102
}
330
EF
100
AcDbVisualStyle
  2
FlatWithEdges
 70
     1
177
     3
291
     1
 70
    58
 90
        2
176
     1
 90
        1
176
     1
 90
        1
176
     1
 90
        2
176
     1
 40
0.6
176
     1
 40
30.0
176
     1
 62
     7
420
 16777215
176
     1
 90
        1
176
     1
 90
        0
176
     1
 62
     7
176
     1
 62
   257
176
     1
 90
        1
176
     1
 90
        1
176
     1
 40
1.0
176
     1
 90
        0
176
     1
 62
   257
176
     1
 40
1.0
176
     1
 90
        1
176
     1
 90
        6
176
     1
 90
        2
176
     1
 62
     7
176
     1
 90
        5
176
     1
 90
        0
176
     1
 90
        0
176
     1
290
     0
176
     1
 90
       13
176
     1
 40
0.0
176
     1
 90
        0
176
     1
290
     0
176
     1
290
     1
176
     1
290
     1
176
     1
290
     0
176
     1
290
     0
176
     1
290
     0
176
     1
290
     0
176
     1
290
     0
176
     1
290
     0
176
     1
 90
       50
176
     1
 40
0.0
176
     1
 40
1.0
176
     1
 90
        0
176
     1
 62
    18
420
        0
176
     1
 90
       50
176
     1
 90
        3
176
     1
 62
     5
420
      255
176
     1
290
     0
176
     1
 90
       50
176
     1
 90
       50
176
     1
 90
       50
176
     1
290
     0
176
     1
 90
       50
176
     1
 62
   256
176
     0
 40
1.0
176
     0
 90
        2
176
     1
  1
strokes_ogs.tif
176
     1
290
     0
176
     1
 40
1.0
176
     1
 40
1.0
176
     1
  0
VISUALSTYLE
  5
F2
102
{ACAD_REACTORS
330
EF
102
}
330
EF
100
AcDbVisualStyle
  2
Gouraud
 70
     2
177
     3
291
     1
 70
    58
 90
        2
176
     1
 90
        2
176
     1
 90
        1
176
     1
 90
        2
176
     1
 40
0.6
176
     1
 40
30.0
176
     1
 62
     7
420
 16777215
176
     1
 90
        0
176
     1
 90
        0
176
     1
 62
     7
176
     1
 62
   257
176
     1
 90
        1
176
     1
 90
        1
176
     1
 40
1.0
176
     1
 90
        0
176
     1
 62
     7
176
     1
 40
1.0
176
     1
 90
        1
176
     1
 90
        6
176
     1
 90
        2
176
     1
 62
     7
176
     1
 90
        5
176
     1
 90
        0
176
     1
 90
        0
176
     1
290
     0
176
     1
 90
       13
176
     1
 40
0.0
176
     1
 90
        0
176
     1
290
     0
176
     1
290
     1
176
     1
290
     1
176
     1
290
     0
176
     1
290
     0
176
     1
290
     0
176
     1
290
     0
176
     1
290
     0
176
     1
290
     0
176
     1
 90
       50
176
     1
 40
0.0
176
     1
 40
1.0
176
     1
 90
        0
176
     1
 62
    18
420
        0
176
     1
 90
       50
176
     1
 90
        3
176
     1
 62
     5
420
      255
176
     1
290
     0
176
     1
 90
       50
176
     1
 90
       50
176
     1
 90
       50
176
     1
290
     0
176
     1
 90
       50
176
     1
 62
   256
176
     0
 40
1.0
176
     0
 90
        2
176
     1
  1
strokes_ogs.tif
176
     1
290
     0
176
     1
 40
1.0
176
     1
 40
1.0
176
     1
  0
VISUALSTYLE
  5
F3
102
{ACAD_REACTORS
330
EF
102
}
330
EF
100
AcDbVisualStyle
  2
GouraudWithEdges
 70
     3
177
     3
291
     1
 70
    58
 90
        2
176
     1
 90
        2
176
     1
 90
        1
176
     1
 90
        2
176
     1
 40
0.6
176
     1
 40
30.0
176
     1
 62
     7
420
 16777215
176
     1
 90
        1
176
     1
 90
        0
176
     1
 62
     7
176
     1
 62
   257
176
     1
 90
        1
176
     1
 90
        1
176
     1
 40
1.0
176
     1
 90
        0
176
     1
 62
   257
176
     1
 40
1.0
176
     1
 90
        1
176
     1
 90
        6
176
     1
 90
        2
176
     1
 62
     7
176
     1
 90
        5
176
     1
 90
        0
176
     1
 90
        0
176
     1
290
     0
176
     1
 90
       13
176
     1
 40
0.0
176
     1
 90
        0
176
     1
290
     0
176
     1
290
     1
176
     1
290
     1
176
     1
290
     0
176
     1
290
     0
176
     1
290
     0
176
     1
290
     0
176
     1
290
     0
176
     1
290
     0
176
     1
 90
       50
176
     1
 40
0.0
176
     1
 40
1.0
176
     1
 90
        0
176
     1
 62
    18
420
        0
176
     1
 90
       50
176
     1
 90
        3
176
     1
 62
     5
420
      255
176
     1
290
     0
176
     1
 90
       50
176
     1
 90
       50
176
     1
 90
       50
176
     1
290
     0
176
     1
 90
       50
176
     1
 62
   256
176
     0
 40
1.0
176
     0
 90
        2
176
     1
  1
strokes_ogs.tif
176
     1
290
     0
176
     1
 40
1.0
176
     1
 40
1.0
176
     1
  0
VISUALSTYLE
  5
F7
102
{ACAD_REACTORS
330
EF
102
}
330
EF
100
AcDbVisualStyle
  2
Hidden
 70
     6
177
     3
291
     0
 70
    58
 90
        1
176
     1
 90
        2
176
     1
 90
        2
176
     1
 90
        0
176
     1
 40
0.6
176
     1
 40
30.0
176
     1
 62
     7
420
 16777215
176
     1
 90
        2
176
     1
 90
        2
176
     1
 62
     7
176
     1
 62
   257
176
     1
 90
        2
176
     1
 90
        1
176
     1
 40
40.0
176
     1
 90
        0
176
     1
 62
   257
176
     1
 40
1.0
176
     1
 90
        1
176
     1
 90
        6
176
     1
 90
        2
176
     1
 62
     7
176
     1
 90
        3
176
     1
 90
        0
176
     1
 90
        0
176
     1
290
     0
176
     1
 90
        1
176
     1
 40
0.0
176
     1
 90
        0
176
     1
290
     0
176
     1
290
     1
176
     1
290
     1
176
     1
290
     0
176
     1
290
     0
176
     1
290
     0
176
     1
290
     0
176
     1
290
     0
176
     1
290
     0
176
     1
 90
       50
176
     1
 40
0.0
176
     1
 40
1.0
176
     1
 90
        0
176
     1
 62
    18
420
        0
176
     1
 90
       50
176
     1
 90
        3
176
     1
 62
     5
420
      255
176
     1
290
     0
176
     1
 90
       50
176
     1
 90
       50
176
     1
 90
       50
176
     1
290
     0
176
     1
 90
       50
176
     1
 62
   256
176
     0
 40
1.0
176
     0
 90
        2
176
     1
  1
strokes_ogs.tif
176
     1
290
     0
176
     1
 40
1.0
176
     1
 40
1.0
176
     1
  0
VISUALSTYLE
  5
1E4
102
{ACAD_REACTORS
330
EF
102
}
330
EF
100
AcDbVisualStyle
  2
JitterOff
 70
    20
177
     3
291
     1
 70
    58
 90
        2
176
     0
 90
        2
176
     0
 90
        0
176
     0
 90
        0
176
     0
 40
0.6
176
     0
 40
30.0
176
     0
 62
     7
420
 16777215
176
     0
 90
        1
176
     0
 90
        4
176
     0
 62
     7
176
     0
 62
   257
176
     0
 90
        1
176
     0
 90
        1
176
     0
 40
1.0
176
     0
 90
       10
176
     2
 62
     7
176
     0
 40
1.0
176
     0
 90
        1
176
     0
 90
        6
176
     0
 90
        2
176
     0
 62
     7
176
     0
 90
        5
176
     0
 90
        0
176
     0
 90
        0
176
     0
290
     0
176
     0
 90
        1
176
     0
 40
0.0
176
     0
 90
        0
176
     0
290
     0
176
     1
290
     1
176
     1
290
     1
176
     1
290
     0
176
     1
290
     0
176
     1
290
     0
176
     1
290
     0
176
     1
290
     0
176
     1
290
     0
176
     1
 90
       50
176
     1
 40
0.0
176
     1
 40
1.0
176
     1
 90
        0
176
     1
 62
    18
420
        0
176
     1
 90
       50
176
     1
 90
        3
176
     1
 62
     5
420
      255
176
     1
290
     0
176
     1
 90
       50
176
     1
 90
       50
176
     1
 90
       50
176
     1
290
     0
176
     1
 90
       50
176
     1
 62
   256
176
     0
 40
1.0
176
     0
 90
        2
176
     1
  1
strokes_ogs.tif
176
     1
290
     0
176
     1
 40
1.0
176
     1
 40
1.0
176
     1
  0
VISUALSTYLE
  5
FD
102
{ACAD_REACTORS
330
EF
102
}
330
EF
100
AcDbVisualStyle
  2
Linepattern
 70
    14
177
     3
291
     1
 70
    58
 90
        2
176
     1
 90
        2
176
     1
 90
        1
176
     1
 90
        0
176
     1
 40
0.6
176
     1
 40
30.0
176
     1
 62
     7
420
 16777215
176
     1
 90
        1
176
     1
 90
        4
176
     1
 62
     7
176
     1
 62
   257
176
     1
 90
        7
176
     1
 90
        7
176
     1
 40
1.0
176
     1
 90
        8
176
     1
 62
     7
176
     1
 40
1.0
176
     1
 90
        1
176
     1
 90
        6
176
     1
 90
        2
176
     1
 62
     7
176
     1
 90
        5
176
     1
 90
        0
176
     1
 90
        0
176
     1
290
     0
176
     1
 90
        1
176
     1
 40
0.0
176
     1
 90
        0
176
     1
290
     0
176
     1
290
     1
176
     1
290
     1
176
     1
290
     0
176
     1
290
     0
176
     1
290
     0
176
     1
290
     0
176
     1
290
     0
176
     1
290
     0
176
     1
 90
       50
176
     1
 40
0.0
176
     1
 40
1.0
176
     1
 90
        0
176
     1
 62
    18
420
        0
176
     1
 90
       50
176
     1
 90
        3
176
     1
 62
     5
420
      255
176
     1
290
     0
176
     1
 90
       50
176
     1
 90
       50
176
     1
 90
       50
176
     1
290
     0
176
     1
 90
       50
176
     1
 62
   256
176
     0
 40
1.0
176
     0
 90
        2
176
     1
  1
strokes_ogs.tif
176
     1
290
     0
176
     1
 40
1.0
176
     1
 40
1.0
176
     1
  0
VISUALSTYLE
  5
1E5
102
{ACAD_REACTORS
330
EF
102
}
330
EF
100
AcDbVisualStyle
  2
OverhangOff
 70
    21
177
     3
291
     1
 70
    58
 90
        2
176
     0
 90
        2
176
     0
 90
        0
176
     0
 90
        0
176
     0
 40
0.6
176
     0
 40
30.0
176
     0
 62
     7
420
 16777215
176
     0
 90
        1
176
     0
 90
        4
176
     0
 62
     7
176
     0
 62
   257
176
     0
 90
        1
176
     0
 90
        1
176
     0
 40
1.0
176
     0
 90
        9
176
     2
 62
     7
176
     0
 40
1.0
176
     0
 90
        1
176
     0
 90
        6
176
     0
 90
        2
176
     0
 62
     7
176
     0
 90
        5
176
     0
 90
        0
176
     0
 90
        0
176
     0
290
     0
176
     0
 90
        1
176
     0
 40
0.0
176
     0
 90
        0
176
     0
290
     0
176
     1
290
     1
176
     1
290
     1
176
     1
290
     0
176
     1
290
     0
176
     1
290
     0
176
     1
290
     0
176
     1
290
     0
176
     1
290
     0
176
     1
 90
       50
176
     1
 40
0.0
176
     1
 40
1.0
176
     1
 90
        0
176
     1
 62
    18
420
        0
176
     1
 90
       50
176
     1
 90
        3
176
     1
 62
     5
420
      255
176
     1
290
     0
176
     1
 90
       50
176
     1
 90
       50
176
     1
 90
       50
176
     1
290
     0
176
     1
 90
       50
176
     1
 62
   256
176
     0
 40
1.0
176
     0
 90
        2
176
     1
  1
strokes_ogs.tif
176
     1
290
     0
176
     1
 40
1.0
176
     1
 40
1.0
176
     1
  0
VISUALSTYLE
  5
F9
102
{ACAD_REACTORS
330
EF
102
}
330
EF
100
AcDbVisualStyle
  2
Realistic
 70
     8
177
     3
291
     0
 70
    58
 90
        2
176
     1
 90
        3
176
     1
 90
        0
176
     1
 90
        2
176
     1
 40
0.6
176
     1
 40
30.0
176
     1
 62
     7
420
 16777215
176
     1
 90
        0
176
     1
 90
        0
176
     1
 62
     7
176
     1
 62
   257
176
     1
 90
        1
176
     1
 90
        1
176
     1
 40
1.0
176
     1
 90
        8
176
     1
 62
   257
176
     1
 40
1.0
176
     1
 90
        1
176
     1
 90
        6
176
     1
 90
        2
176
     1
 62
     7
176
     1
 90
        3
176
     1
 90
        0
176
     1
 90
        0
176
     1
290
     0
176
     1
 90
       13
176
     1
 40
0.0
176
     1
 90
        0
176
     1
290
     0
176
     1
290
     1
176
     1
290
     1
176
     1
290
     0
176
     1
290
     0
176
     1
290
     0
176
     1
290
     0
176
     1
290
     0
176
     1
290
     0
176
     1
 90
       50
176
     1
 40
0.0
176
     1
 40
1.0
176
     1
 90
        0
176
     1
 62
    18
420
        0
176
     1
 90
       50
176
     1
 90
        3
176
     1
 62
     5
420
      255
176
     1
290
     0
176
     1
 90
       50
176
     1
 90
       50
176
     1
 90
       50
176
     1
290
     0
176
     1
 90
       50
176
     1
 62
   256
176
     0
 40
1.0
176
     0
 90
        2
176
     1
  1
strokes_ogs.tif
176
     1
290
     0
176
     1
 40
1.0
176
     1
 40
1.0
176
     1
  0
VISUALSTYLE
  5
1F3
102
{ACAD_REACTORS
330
EF
102
}
330
EF
100
AcDbVisualStyle
  2
Shaded
 70
    27
177
     3
291
     0
 70
    58
 90
        2
176
     1
 90
        2
176
     1
 90
        1
176
     1
 90
        2
176
     1
 40
0.6
176
     1
 40
30.0
176
     1
 62
     7
420
 16777215
176
     1
 90
        0
176
     1
 90
        4
176
     1
 62
     7
176
     1
 62
   257
176
     1
 90
        1
176
     1
 90
        1
176
     1
 40
1.0
176
     1
 90
        8
176
     1
 62
   257
176
     1
 40
1.0
176
     1
 90
        1
176
     1
 90
        6
176
     1
 90
        2
176
     1
 62
     8
420
  7895160
176
     1
 90
        3
176
     1
 90
        0
176
     1
 90
        0
176
     1
290
     0
176
     1
 90
        5
176
     1
 40
0.0
176
     1
 90
        0
176
     1
290
     0
176
     1
290
     1
176
     1
290
     1
176
     1
290
     0
176
     1
290
     0
176
     1
290
     0
176
     1
290
     0
176
     1
290
     0
176
     1
290
     0
176
     1
 90
       50
176
     1
 40
0.0
176
     1
 40
1.0
176
     1
 90
        0
176
     1
 62
    18
420
        0
176
     1
 90
       50
176
     1
 90
        3
176
     1
 62
     5
420
      255
176
     1
290
     0
176
     1
 90
       50
176
     1
 90
       50
176
     1
 90
       50
176
     1
290
     0
176
     1
 90
       50
176
     1
 62
   256
176
     0
 40
1.0
176
     0
 90
        2
176
     1
  1
strokes_ogs.tif
176
     1
290
     0
176
     1
 40
1.0
176
     1
 40
1.0
176
     1
  0
VISUALSTYLE
  5
1F2
102
{ACAD_REACTORS
330
EF
102
}
330
EF
100
AcDbVisualStyle
  2
Shaded with edges
 70
    26
177
     3
291
     0
 70
    58
 90
        2
176
     1
 90
        2
176
     1
 90
        1
176
     1
 90
        2
176
     1
 40
0.6
176
     1
 40
30.0
176
     1
 62
     7
420
 16777215
176
     1
 90
        1
176
     1
 90
        2
176
     1
 62
     7
176
     1
 62
   257
176
     1
 90
        2
176
     1
 90
        1
176
     1
 40
1.0
176
     1
 90
        8
176
     1
 62
   257
176
     1
 40
1.0
176
     1
 90
        1
176
     1
 90
        6
176
     1
 90
        2
176
     1
 62
     7
176
     1
 90
        3
176
     1
 90
        0
176
     1
 90
        0
176
     1
290
     0
176
     1
 90
        5
176
     1
 40
0.0
176
     1
 90
        0
176
     1
290
     0
176
     1
290
     1
176
     1
290
     1
176
     1
290
     0
176
     1
290
     0
176
     1
290
     0
176
     1
290
     0
176
     1
290
     0
176
     1
290
     0
176
     1
 90
       50
176
     1
 40
0.0
176
     1
 40
1.0
176
     1
 90
        0
176
     1
 62
    18
420
        0
176
     1
 90
       50
176
     1
 90
        3
176
     1
 62
     5
420
      255
176
     1
290
     0
176
     1
 90
       50
176
     1
 90
       50
176
     1
 90
       50
176
     1
290
     0
176
     1
 90
       50
176
     1
 62
   256
176
     0
 40
1.0
176
     0
 90
        2
176
     1
  1
strokes_ogs.tif
176
     1
290
     0
176
     1
 40
1.0
176
     1
 40
1.0
176
     1
  0
VISUALSTYLE
  5
1EF
102
{ACAD_REACTORS
330
EF
102
}
330
EF
100
AcDbVisualStyle
  2
Shades of Gray
 70
    23
177
     3
291
     0
 70
    58
 90
        2
176
     1
 90
        2
176
     1
 90
        3
176
     1
 90
        0
176
     1
 40
0.6
176
     1
 40
30.0
176
     1
 62
     7
420
 16777215
176
     1
 90
        2
176
     1
 90
        2
176
     1
 62
     7
176
     1
 62
     7
176
     1
 90
        1
176
     1
 90
        1
176
     1
 40
40.0
176
     1
 90
        8
176
     1
 62
     7
176
     1
 40
1.0
176
     1
 90
        1
176
     1
 90
        6
176
     1
 90
        2
176
     1
 62
     7
176
     1
 90
        3
176
     1
 90
        0
176
     1
 90
        0
176
     1
290
     0
176
     1
 90
        1
176
     1
 40
0.0
176
     1
 90
        0
176
     1
290
     0
176
     1
290
     1
176
     1
290
     1
176
     1
290
     0
176
     1
290
     0
176
     1
290
     0
176
     1
290
     0
176
     1
290
     0
176
     1
290
     0
176
     1
 90
       50
176
     1
 40
0.0
176
     1
 40
1.0
176
     1
 90
        0
176
     1
 62
    18
420
        0
176
     1
 90
       50
176
     1
 90
        3
176
     1
 62
     5
420
      255
176
     1
290
     0
176
     1
 90
       50
176
     1
 90
       50
176
     1
 90
       50
176
     1
290
     0
176
     1
 90
       50
176
     1
 62
   256
176
     0
 40
1.0
176
     0
 90
        2
176
     1
  1
strokes_ogs.tif
176
     1
290
     0
176
     1
 40
1.0
176
     1
 40
1.0
176
     1
  0
VISUALSTYLE
  5
1F0
102
{ACAD_REACTORS
330
EF
102
}
330
EF
100
AcDbVisualStyle
  2
Sketchy
 70
    24
177
     3
291
     0
 70
    58
 90
        1
176
     1
 90
        2
176
     1
 90
        2
176
     1
 90
        0
176
     1
 40
0.6
176
     1
 40
30.0
176
     1
 62
     7
420
 16777215
176
     1
 90
        2
176
     1
 90
        2
176
     1
 62
     7
176
     1
 62
     7
176
     1
 90
        1
176
     1
 90
        1
176
     1
 40
40.0
176
     1
 90
       11
176
     1
 62
     7
176
     1
 40
1.0
176
     1
 90
        1
176
     1
 90
        6
176
     1
 90
        2
176
     1
 62
     7
176
     1
 90
        6
176
     1
 90
        0
176
     1
 90
        0
176
     1
290
     0
176
     1
 90
        1
176
     1
 40
0.0
176
     1
 90
        0
176
     1
290
     0
176
     1
290
     1
176
     1
290
     1
176
     1
290
     0
176
     1
290
     0
176
     1
290
     0
176
     1
290
     0
176
     1
290
     0
176
     1
290
     0
176
     1
 90
       50
176
     1
 40
0.0
176
     1
 40
1.0
176
     1
 90
        0
176
     1
 62
    18
420
        0
176
     1
 90
       50
176
     1
 90
        3
176
     1
 62
     5
420
      255
176
     1
290
     0
176
     1
 90
       50
176
     1
 90
       50
176
     1
 90
       50
176
     1
290
     0
176
     1
 90
       50
176
     1
 62
   256
176
     0
 40
1.0
176
     0
 90
        2
176
     1
  1
strokes_ogs.tif
176
     1
290
     0
176
     1
 40
1.0
176
     1
 40
1.0
176
     1
  0
VISUALSTYLE
  5
FC
102
{ACAD_REACTORS
330
EF
102
}
330
EF
100
AcDbVisualStyle
  2
Thicken
 70
    13
177
     3
291
     1
 70
    58
 90
        2
176
     1
 90
        2
176
     1
 90
        1
176
     1
 90
        0
176
     1
 40
0.6
176
     1
 40
30.0
176
     1
 62
     7
420
 16777215
176
     1
 90
        1
176
     1
 90
        4
176
     1
 62
     7
176
     1
 62
   257
176
     1
 90
        1
176
     1
 90
        1
176
     1
 40
1.0
176
     1
 90
       12
176
     1
 62
     7
176
     1
 40
1.0
176
     1
 90
        1
176
     1
 90
        6
176
     1
 90
        2
176
     1
 62
     7
176
     1
 90
        5
176
     1
 90
        0
176
     1
 90
        0
176
     1
290
     0
176
     1
 90
        1
176
     1
 40
0.0
176
     1
 90
        0
176
     1
290
     0
176
     1
290
     1
176
     1
290
     1
176
     1
290
     0
176
     1
290
     0
176
     1
290
     0
176
     1
290
     0
176
     1
290
     0
176
     1
290
     0
176
     1
 90
       50
176
     1
 40
0.0
176
     1
 40
1.0
176
     1
 90
        0
176
     1
 62
    18
420
        0
176
     1
 90
       50
176
     1
 90
        3
176
     1
 62
     5
420
      255
176
     1
290
     0
176
     1
 90
       50
176
     1
 90
       50
176
     1
 90
       50
176
     1
290
     0
176
     1
 90
       50
176
     1
 62
   256
176
     0
 40
1.0
176
     0
 90
        2
176
     1
  1
strokes_ogs.tif
176
     1
290
     0
176
     1
 40
1.0
176
     1
 40
1.0
176
     1
  0
VISUALSTYLE
  5
F6
102
{ACAD_REACTORS
330
EF
102
}
330
EF
100
AcDbVisualStyle
  2
Wireframe
 70
     5
177
     3
291
     0
 70
    58
 90
        0
176
     1
 90
        2
176
     1
 90
        0
176
     1
 90
        0
176
     1
 40
0.6
176
     1
 40
30.0
176
     1
 62
     7
420
 16777215
176
     1
 90
        1
176
     1
 90
        4
176
     1
 62
     7
176
     1
 62
   257
176
     1
 90
        1
176
     1
 90
        1
176
     1
 40
1.0
176
     1
 90
        0
176
     1
 62
   257
176
     1
 40
1.0
176
     1
 90
        1
176
     1
 90
        6
176
     1
 90
        2
176
     1
 62
     7
176
     1
 90
        3
176
     1
 90
        0
176
     1
 90
        0
176
     1
290
     0
176
     1
 90
        1
176
     1
 40
0.0
176
     1
 90
        0
176
     1
290
     0
176
     1
290
     1
176
     1
290
     1
176
     1
290
     0
176
     1
290
     0
176
     1
290
     0
176
     1
290
     0
176
     1
290
     0
176
     1
290
     0
176
     1
 90
       50
176
     1
 40
0.0
176
     1
 40
1.0
176
     1
 90
        0
176
     1
 62
    18
420
        0
176
     1
 90
       50
176
     1
 90
        3
176
     1
 62
     5
420
      255
176
     1
290
     0
176
     1
 90
       50
176
     1
 90
       50
176
     1
 90
       50
176
     1
290
     0
176
     1
 90
       50
176
     1
 62
   256
176
     0
 40
1.0
176
     0
 90
        2
176
     1
  1
strokes_ogs.tif
176
     1
290
     0
176
     1
 40
1.0
176
     1
 40
1.0
176
     1
  0
VISUALSTYLE
  5
1F1
102
{ACAD_REACTORS
330
EF
102
}
330
EF
100
AcDbVisualStyle
  2
X-Ray
 70
    25
177
     3
291
     0
 70
    58
 90
        2
176
     1
 90
        2
176
     1
 90
        1
176
     1
 90
        1
176
     1
 40
0.5
176
     1
 40
30.0
176
     1
 62
     7
420
 16777215
176
     1
 90
        1
176
     1
 90
        0
176
     1
 62
     7
176
     1
 62
   257
176
     1
 90
        1
176
     1
 90
        1
176
     1
 40
1.0
176
     1
 90
        8
176
     1
 62
     7
176
     1
 40
1.0
176
     1
 90
        1
176
     1
 90
        6
176
     1
 90
        2
176
     1
 62
     7
176
     1
 90
        3
176
     1
 90
        0
176
     1
 90
        0
176
     1
290
     0
176
     1
 90
       13
176
     1
 40
0.0
176
     1
 90
        0
176
     1
290
     0
176
     1
290
     1
176
     1
290
     1
176
     1
290
     0
176
     1
290
     0
176
     1
290
     0
176
     1
290
     0
176
     1
290
     0
176
     1
290
     0
176
     1
 90
       50
176
     1
 40
0.0
176
     1
 40
1.0
176
     1
 90
        0
176
     1
 62
    18
420
        0
176
     1
 90
       50
176
     1
 90
        3
176
     1
 62
     5
420
      255
176
     1
290
     0
176
     1
 90
       50
176
     1
 90
       50
176
     1
 90
       50
176
     1
290
     0
176
     1
 90
       50
176
     1
 62
   256
176
     0
 40
1.0
176
     0
 90
        2
176
     1
  1
strokes_ogs.tif
176
     1
290
     0
176
     1
 40
1.0
176
     1
 40
1.0
176
     1
  0
DICTIONARYVAR
  5
146
102
{ACAD_REACTORS
330
5E
102
}
330
5E
100
DictionaryVariables
280
     0
  1
1:1
  0
DICTIONARYVAR
  5
259
102
{ACAD_REACTORS
330
5E
102
}
330
5E
100
DictionaryVariables
280
     0
  1
3.500000
  0
DICTIONARYVAR
  5
25A
102
{ACAD_REACTORS
330
5E
102
}
330
5E
100
DictionaryVariables
280
     0
  1
acadiso.lin
  0
DICTIONARYVAR
  5
145
102
{ACAD_REACTORS
330
5E
102
}
330
5E
100
DictionaryVariables
280
     0
  1
STANDARD
  0
DICTIONARYVAR
  5
84
102
{ACAD_REACTORS
330
5E
102
}
330
5E
100
DictionaryVariables
280
     0
  1
STANDARD
  0
DICTIONARYVAR
  5
227
102
{ACAD_REACTORS
330
5E
102
}
330
5E
100
DictionaryVariables
280
     0
  1
Metric50
  0
DICTIONARYVAR
  5
228
102
{ACAD_REACTORS
330
5E
102
}
330
5E
100
DictionaryVariables
280
     0
  1
Metric50
  0
DICTIONARYVAR
  5
5F
102
{ACAD_REACTORS
330
5E
102
}
330
5E
100
DictionaryVariables
280
     0
  1
2
  0
DICTIONARYVAR
  5
63
102
{ACAD_REACTORS
330
5E
102
}
330
5E
100
DictionaryVariables
280
     0
  1
1
  0
DICTIONARYVAR
  5
1AE
102
{ACAD_REACTORS
330
5E
102
}
330
5E
100
DictionaryVariables
280
     0
  1
0
  0
DICTIONARYVAR
  5
1AF
102
{ACAD_REACTORS
330
5E
102
}
330
5E
100
DictionaryVariables
280
     0
  1
0
  0
DICTIONARY
  5
205
330
22
100
AcDbDictionary
280
     1
281
     1
  0
DICTIONARY
  5
1F9
330
ED
100
AcDbDictionary
280
     1
281
     1
  3
FBXASSET
360
1FA
  0
DICTIONARY
  5
1F7
330
EC
100
AcDbDictionary
280
     1
281
     1
  3
FBXASSET
360
1F8
  0
DICTIONARY
  5
173
330
EE
100
AcDbDictionary
280
     1
281
     1
  3
BUMPTILE
360
175
  3
DIFFUSETILE
360
174
  3
FBXASSET
360
1FB
  3
OPACITYTILE
360
176
  3
REFLECTIONTILE
360
177
  0
DICTIONARY
  5
162
330
7F
100
AcDbDictionary
280
     1
281
     1
  3
ACAD_ROUNDTRIP_2008_TABLESTYLE_CELLSTYLEMAP
360
8C6
  0
XRECORD
  5
1FA
102
{ACAD_REACTORS
330
1F9
102
}
330
1F9
100
AcDbXrecord
280
     1
 70
     1
 90
429727718
  1
D62C5603-E3A1-4AEA-B7FB-FE5D8D0755AF
310
504B03040A0000080000CC70623B3DEE336E79000000790000001B0000006175746F6465736B2D64657369676E2D7061636B6167652E786D6C3C3F786D6C2076657273696F6E3D22312E302220656E636F64696E673D227574662D3822203F3E3C666F726D6174733E3C666F726D61743E687474703A2F2F736368656D612E
310
6175746F6465736B2E636F6D2F64657369676E2D7061636B6167652F323030393C2F666F726D61743E3C2F666F726D6174733E504B0304140006080800CC70623BD486FD9CA0000000F4000000130000005B436F6E74656E745F54797065735D2E786D6C7D8EC10E82300C865F65E91D8A1E8C310C0EEA1BF002731658846E
310
D98AC1B77784ABF1D8FE5FBFBF75BBCE937A534CCEB38643598122B6FEE978D0B0485F9C41B54DDD7D022595594E1A469170414C76A4D9A4D207E29CF43ECE46F218070CC6BECC4078ACAA135ACF422C856C0E68EA1BF5669944DDD7BCDE7B1F8E415D77AECB980613C2E4AC91FC167A2B244592486606FC29C8FD7F045B9A
310
EF7053A7E60B504B0304140006080800CC70623B853B8169EB0000007C01000008000000636F72652E786D6C8D90416EC3201045AF62CDB6C206821CC7C244919D9CA01740401C94182C03558F5F9C3852BBEB6A467FFE9B197D7EFC9E1EC5975982F5AE035262288C535E5B377690E21535501C055FBC8FBF6C503839990E
310
5619041F179FE64D52DE45E362569DD7661365082642A11EB9E920A89B99642953CC8E702F67A9EE7234257977194EC9EAE275C4EABCCF5EAD5940D4AC6F0E35A568B8F43562CD7046CD199FD07E60174276A7BE677B5EADB0E0D14EEFFB6A31321A0D82627C4084204C3F096B71DD52F6819B16635EADF63F509AF53FA164
310
5DDCD1EDDD17164090FCC8732078B56691CB33A85CD7DCC40F504B0304140006080800CC70623B55019EA25F0000007C00000007000000636E782E786D6C4DCB3B0E80201045D1AD90E915ED2CF8AC45050C11660C8261F98AB1B07AC9C97D42D718D865D3E909258CFD00CCE24AC6E326A164D74DC0B4128928FF32603847
310
2BA13128B1252AC747C6BAB984FC68F0B87FE8960A5C09FE86CFB69FBA01504B0304140006080800CC70623BDBABAAF470010000D40300000C0000006662782F636F72652E786D6CC553D16E823014FD95A6AF4B694182CC941A83FA05FB810A9511A125A5257EFE2E82712ECEB8A7F100CD39F7F69E734AF9FADC366850B6
310
AF8DCE7018308C942E4C59EB2AC3DE1D498AD15A706B8CFB56869196ADCAF00863C12B6B7C374385D14E6907A836A59A41D9F7CA615434B0C8705F7CAA5606D23BA8E84F41278B93AC54100640439DE0BDB320004D43C63716C7C399D30917DCFBBA9CD9BA8469F5B156168B24CED3F7248AC8769F27244EB73B92EED8862C
310
B7F13E0C179B3C8F979C8ECD82BBBABDAA2BAC924E9558448CBD9330242CFA08E3154B5651FCC6D215639C8EE5774DBE2B5F6CF2B5768B68963BB5F5588420E442FC700B1139D4CB01F450C1E918227C2E09DF070D8140C84E1E9AAB8F1340832A9CB13130A5F1376A908D57309505ECF2A0DF179C4E9D30F5B239B87E3823
310
7A79C6F31DE1A8A5AEC08474B03C7837EAE4938639B44E5932B833D2C6B6B279CDC613877FA26EE21F4A2A4C63EC7F29A2F301D1F9F7A0E37D145F504B0304140006080800CC70623B9C113CC27E0000009D0000000B0000006662782F636E782E786D6C4DCCDF0A83201C86E15B91DFB94BFB330DD428C8FB886521330DA7
310
6397BF1A1DECE883878F57749FCDA1B7892F1BBC047A23808C7F84D9FA55424E0BE6803A256208E9EF06C84F9B91703228B1C690F78B66B34CD9A5439DF5CF0BFBF65E35BCA1B8D6A5C6F540381E886698B5741C695F9503EBA150A2F8958E3DC3EA0B504B0304140006080800CC70623B7DF2F77C2A010000120200003100
310
00006662782F41393633353835312D344632462D344230382D423046372D3739314545314133324237412F636F72652E786D6C8D51DB8EC22014FC15C2939B0D2DB4B45643319AE817EC0F6041255A68B86CFCFC856D4D76DF7CE190393373060EDB3DC707F856CE6B6B7A480A0C81328395DA5C7B18C3057510EC3873D686
310
3F34088C18550F330C39BB3A1BA7051AAC09CA84841A2BD5020AEF55806078A44B0FFD7053A328440C89E1EFC52486BBB8AA8214A99D789CF9E05200300FC927E4FB4D5B375D43103D5527440FB843077C5AA3F5861C8F645F5787F59E95B390B318B55CE45AA638FAA2957BD7248B390B7A7CC51F9C124149C82B8C378810
310
84AB2F42B7B8DD56F413775B8C5999E9FF4471926F8AA236A1AE96B8B3CC434E5839373893369E1FAF30EA395917409EB7F26AF8801C171837A4A6AC9C89E9F9C9B1A58BA30FD6A5EF5DDDCF894B9AD9B6A59C957943A9FCAE2FD5BC4DFE03504B0304140006080800CC70623BAD7543B64E01000033030000300000006662
310
782F41393633353835312D344632462D344230382D423046372D3739314545314133324237412F636E782E786D6CD593CD6EC32010845F0571AD6CE3D48AD20813A9873E410FBD12D82434182C7EAAE6EDBB2424CD25871E7B41D6EC30B3FA84F9E67BB2E40B4234DE8DB46F1925E094D7C6ED479AD3AE5951B2113C789FEE
310
6C943839C1488B4C05DF079FE72A69D8C96C13AAD6B8631503449F83828872B949AC57D26200B826A308D316B4064D6E46FCDA41C05550DC9E483A00797BFD207EFB092A45DE9514C1BBD22178396BD39D891265658C238DEA00936C654E5E433CB65A26D9F6EDB5EBC14EBF49A45CB856E66048291F6939A9A81BB5C89177
310
38143CA680F4AA299D66A042CEB3354A2684DC9D8D178FE0D9B8B41CAAD720F880EE7EF93C0C18769E099ECC04D5A102C8049A8A05632F4DDF376CF1DE0F6BB65C2F8627B65A33C6BB62177CEBBDAD973006829F89F22E814B54F4BC2BE347F8AA8F681390B50FA73F804400B5F542E796F19FF974E7F78DB802FE05E20750
310
4B0304140006080800CC70623BE75B7789680500003C100000340000006662782F41393633353835312D344632462D344230382D423046372D3739314545314133324237412F6F626A656374732E786D6CAD575B8F9B3818FD2B887D06C22499CB8AA1CA655245D5B455A356FB305264C061D8018C6C3393D95FBFC7600890
310
A4CD5EF210B0B1BFEBF98E3F7B1FF6596ABC522E1296DF9BAE3D320D9A872C4AF2F8DE2CE5CEBA358D0FBEC719939D65A691938CDE9B6ADAF4BD98B3B2D05311DD91329583D9D5FC0F438434A7A611A644887B5384CF34233629258BA878B12322891DEFF6B66BD70BFB62634E8AE781D082709A4B588AF91C528CDA28B73F
310
1C998EEF39EABBEFA97FBD6A7C7E9553F9D3D79FE442923C3C523610337627CB87ABE99D359D4CC6D6E4FACAB5E6ABF9D2726FC6A3C5F56271377BB88362213924694B38DD99FE47C48627A1E7D49F5A8BB5E1A74C0A599ED3B0F21F1E56366B89112D681E218F0915D0D6F17AD41FBA2A369DCF6335D62ABBD39779D5DDD1
310
11D4D8DE3CBB96B2E04FB8202E41051754A1AA8E8F76B4C6DFE810B580B1547F4B84911149794252234D024EF8BBE963A95AE27B3D310A9D5C215C7960FAEE415ED75694C6AFB17BCACA5D99A60A9AA65F217B0BFC53292ACB92BF283FAD0D3621576592CB5BED907C2FA8E9DF794E35E97BEA31BED21FEB401ABB94C44839
310
DCACBF0E1C5DA8DA5B2F4DFFD32AD86F543D9E565E7056502E157C00AD2671CD534549AB752FCA9CDA00677A313F04E51B22FF19E57B300579E3C97EB29F682D92935CEC18CF901B7B54FD8C51F362B56FC72FE0B3C1EAE335EDCCBF5AEC39ADB17DC238973F804BA5E6F6BFE7AF1FB32E523BE9F3BD571418E3631DCA4D48
310
5250CF639223210A9446CA30052EDF057BD35F8329C1ECD84552BF0DC8D18BE7BCE23BFE6BD960AB4A7DE79923A103BEBD80F911CBAA2C60DB19B01CF164A5583B772EE6D3FFA56666CBCDA74DC97724A48F9A58967497E489C4D979006FD7A05E227A1EBDD0F737C623387A9C844D3709995625106D157315F8B8392CD4E0
310
A0B9A720C4BE9829CEF37EA1E13111214D53925356365ADA634861B52519DD27A00AEB808EAF0628E6F435519D446F45CF2C9CF5214F0A15B2F6D06B79DA3EE3CBF7F56780D2F4E7EF73A0F5E5B02A38D07DC852C6B7C1FBB6664213E0C39E3EBA7FF4E1AD23EA2829407C85E586727488B751B2DB9502BC7B228A3FD68B6E
310
A65A22397E690AA8D158D7E404EC8CDA235CC3B7D1898680131CEC2CDF2638C65196279577750F15884AEE19F94199155B92B13297978469D4F8D358DF0AEF7631E28DC8F0D9F437D5D39A83B2231A1D52D543813A824EF8D44BCFF2FA6A31BD1E8DAD87F1CCB526B3879935BF59CDADD5C37479BB1CDD4CA7B3556B516589
310
EF352754B706114D9C885EC9131DE6EFEB43D99AFE2391C2F958179413D7CFEF6B1B6DB1E7600F00DE6E5C67454A339A4BA2E0FBA85ED26F045D454F463DBFCE484C2F90F2E5E3666003662ED8F755951A7D1BECD5B30B550B2785C8E7320B7292A4838DDA71BBC863ED7613CAF659337A3354231D4FF4A182A54904C2898C
310
98B28C4AD0CE056CCF332A80986E571EE9DBC305BB5FEB7E509220A58D25CF042D712A806AC0AD0C657FDEF80D2D9CEAA2EE4D1C76F60BFE74219A06527D6F82DF6412526107381E55E353090704D085B52408A8913C4ED159D79BDA71BB4BC506F4831350EB6F975CD22D69BF7AC49B91A2C0A9DDA3D5CA36AD20FC478E37
310
E61844E2352865EBCB61A275A65283CAAA9DD27703B4102F5AF51EF5F573B75CBB5AD38BC845F7A49F82A0966A49C2E3EA5EA0ECD326CD965F1DB402C6FA8B51A4658C5C5E2EC9E214602E55810345408596591009A82E7E7FFACA19EEA299B14A0081A705CB3296EBC14CDF658DCD336EA6D1136881AAEB87B81AB9EE53D5
310
F5EB8BC8362082DA24122F98680A4E7930C01A0079749CEA14382A0783E5EBA5A10F8C098456A03D6A4AEB6BB881E2513747552A5DB22C7EDAF83BD5528081A365F7FF06504B0304140006080000CC70623B000000000000000000000000350000006662782F41393633353835312D344632462D344230382D423046372D37
310
39314545314133324237412F76657274696365732E62696E504B0304140006080800CC70623BF270F1330600000004000000360000006662782F41393633353835312D344632462D344230382D423046372D3739314545314133324237412F747269616E676C65732E62696E636660600000504B0304140006080000CC7062
310
3B000000000000000000000000370000006662782F41393633353835312D344632462D344230382D423046372D3739314545314133324237412F617474726962757465732E62696E504B0304140006080800CC70623B08DA0BD19000000041010000360000006662782F41393633353835312D344632462D344230382D4230
310
46372D3739314545314133324237412F6469726563746F72792E786D6C858F410AC3201045AF22B36F53E9A60B35CBEEBAE80D244E44489C6234F4F835464A48035D0DF398FF9F8AF63D0E6CC63039F212F8F9020C7D47C6792B21C5FE7403D62A1188E2E60C98D7234A5830286103A55745067B9D86B8A3CF9C7F90C11DE6
310
07FB144396D7B6A82D282E9A152AD114D5EF2CB866EEE831B8EEA07A7BB5A8D7D61A2BAAEB7FD5F70921FF497D00504B0304140006080800CC70623BEDD1DC58FD000000A00100003B0000006662782F41393633353835312D344632462D344230382D423046372D3739314545314133324237412F7265736F75726365732F
310
636F72652E786D6C8D504B6E833010BD0A9A6D65B00922041947112427E8052C33A156828DFCA97AFC9A40A576D7CDCCE87D344F8F9FBFE667F689CE6B6B3A6039850C8DB2A336530731DC4903D95970676DF82583CCC8193B5861107C72362E3BA4AC096842428D1D7107A5F7182053CF7474E0D507CE32973124857FE48B
310
540F3961CEF244279DE03EB81420DB9EAC1384436FA353E879B1B182C7A8C75DA3C7F453DF353A1075D537A7BA6464B8F535A99AE14A9A2BBD90E350DD183B5CFABE3AF262350B1EF4FC9351399401471025A527C218A1E53BAB5A5AB765F5469B96525EACF23FA6B88CFF34456DC2A1DCE36E360F82A5202F42F062ED2BAD
310
579969AFDD8A6F504B010214000A0000080000CC70623B3DEE336E79000000790000001B00000000000000000000000000000000006175746F6465736B2D64657369676E2D7061636B6167652E786D6C504B01021400140006080800CC70623BD486FD9CA0000000F40000001300000000000000000000000000B20000005B
310
436F6E74656E745F54797065735D2E786D6C504B01021400140006080800CC70623B853B8169EB0000007C010000080000000000000000000000000083010000636F72652E786D6C504B01021400140006080800CC70623B55019EA25F0000007C000000070000000000000000000000000094020000636E782E786D6C504B
310
01021400140006080800CC70623BDBABAAF470010000D40300000C00000000000000000000000000180300006662782F636F72652E786D6C504B01021400140006080800CC70623B9C113CC27E0000009D0000000B00000000000000000000000000B20400006662782F636E782E786D6C504B01021400140006080800CC70
310
623B7DF2F77C2A010000120200003100000000000000000000000000590500006662782F41393633353835312D344632462D344230382D423046372D3739314545314133324237412F636F72652E786D6C504B01021400140006080800CC70623BAD7543B64E010000330300003000000000000000000000000000D2060000
310
6662782F41393633353835312D344632462D344230382D423046372D3739314545314133324237412F636E782E786D6C504B01021400140006080800CC70623BE75B7789680500003C10000034000000000000000000000000006E0800006662782F41393633353835312D344632462D344230382D423046372D3739314545
310
314133324237412F6F626A656374732E786D6C504B01021400140006080000CC70623B0000000000000000000000003500000000000000000000000000280E00006662782F41393633353835312D344632462D344230382D423046372D3739314545314133324237412F76657274696365732E62696E504B01021400140006
310
080800CC70623BF270F133060000000400000036000000000000000000000000007B0E00006662782F41393633353835312D344632462D344230382D423046372D3739314545314133324237412F747269616E676C65732E62696E504B01021400140006080000CC70623B0000000000000000000000003700000000000000
310
000000000000D50E00006662782F41393633353835312D344632462D344230382D423046372D3739314545314133324237412F617474726962757465732E62696E504B01021400140006080800CC70623B08DA0BD1900000004101000036000000000000000000000000002A0F00006662782F41393633353835312D344632
310
462D344230382D423046372D3739314545314133324237412F6469726563746F72792E786D6C504B01021400140006080800CC70623BEDD1DC58FD000000A00100003B000000000000000000000000000E1000006662782F41393633353835312D344632462D344230382D423046372D3739314545314133324237412F7265
310
736F75726365732F636F72652E786D6C504B0506000000000E000E0080040000641100000000
  0
XRECORD
  5
1F8
102
{ACAD_REACTORS
330
1F7
102
}
330
1F7
100
AcDbXrecord
280
     1
 70
     1
 90
429727718
  1
30362254-06B7-45E0-A893-8CFA70E3D6BC
310
504B03040A0000080000CC70623B3DEE336E79000000790000001B0000006175746F6465736B2D64657369676E2D7061636B6167652E786D6C3C3F786D6C2076657273696F6E3D22312E302220656E636F64696E673D227574662D3822203F3E3C666F726D6174733E3C666F726D61743E687474703A2F2F736368656D612E
310
6175746F6465736B2E636F6D2F64657369676E2D7061636B6167652F323030393C2F666F726D61743E3C2F666F726D6174733E504B0304140006080800CC70623BD486FD9CA0000000F4000000130000005B436F6E74656E745F54797065735D2E786D6C7D8EC10E82300C865F65E91D8A1E8C310C0EEA1BF002731658846E
310
D98AC1B77784ABF1D8FE5FBFBF75BBCE937A534CCEB38643598122B6FEE978D0B0485F9C41B54DDD7D022595594E1A469170414C76A4D9A4D207E29CF43ECE46F218070CC6BECC4078ACAA135ACF422C856C0E68EA1BF5669944DDD7BCDE7B1F8E415D77AECB980613C2E4AC91FC167A2B244592486606FC29C8FD7F045B9A
310
EF7053A7E60B504B0304140006080800CC70623B1EC5D7A3EB0000007C01000008000000636F72652E786D6C8D90416EC3201045AF82665B6103C6756C6122AB4D4ED00B204C5C94182C03558F5F9C3852BBEB6A467FFE9B197D71FC9E6FE8CBACC17AD7032D0820E3B41FAD9B7A48F1820F808E52ACDEC75F36404ECDA687
310
4D0629A6D5A76597B477D1B89855E747B38B2A041301E95B6E7A08FAD3CCAA50296647B8168BD2573599823EBB0CA76447F43862C7BCCF5EAC59410E4DDD9C7973C2755553CCCFA4C603E3040F1565ED3B1FDE4E432BCA0D9622DAF9795FAF464533826484B498524CD807E51D79ED187F21878E10516EF63F505AC67F42C9
310
BA58B1FDDD071640D2FCC87D2045B96591CB3DA85CB7DCE40F504B0304140006080800CC70623B55019EA25F0000007C00000007000000636E782E786D6C4DCB3B0E80201045D1AD90E915ED2CF8AC45050C11660C8261F98AB1B07AC9C97D42D718D865D3E909258CFD00CCE24AC6E326A164D74DC0B4128928FF32603847
310
2BA13128B1252AC747C6BAB984FC68F0B87FE8960A5C09FE86CFB69FBA01504B0304140006080800CC70623B8C9102E971010000D40300000C0000006662782F636F72652E786D6CC5535B6E833010BC8AE5DF0A6C08340F1947A84D4ED00B38C6A128602363A31CBFCB234A53A551FA553EC09AD9F5CE8C31DB9E9B1AF5CA
310
7695D1198E428A91D2D214952E33ECDD315861B4E5CC1AE3BE9561A445A3323CC098B3D21ADFCE9034DA29ED00D5A6503328BA4E398C640D8B0C77F253352214DE4145770A5B214FA2546114020D759C75CE8200340D19DE981F0F6746269C33EFAB6266AB02A655C74A59CCF365BADC27CB5D902ED22848F6340DF238A141
310
BE88E2F57B92BFEDF23523433367AE6A2EEAA455C2A902F398D2751045018D3FA264435F3771F242571B4A1919CA6F9A7C5B3CD9E42BED16F12C776AEB308F40C848FC700B1139D4891EF410CEC810227CC6846F8386402064270EF5C5C709A05E49676C024C61FC95EA45ED154CA5211D1FF4FB8291A913A68E9B83EBBB33
310
E2A7673CDE118E5AE8124C0807CB8377834E366998436B950D7A7746DAD846D4CFD978E0F04FD455FC5D49D2D4C6FE9722321F10997F0F32DC47FE05504B0304140006080800CC70623BFFEA85907E0000009D0000000B0000006662782F636E782E786D6C4DCCD10A83201886E15B91FFDC95D95A811AB6F23E625948A6C3
310
E9D8E5AF46073BFAE0E1E365ED67B3E8ADC3CB78C7815C7240DA3DFC64DCC221C519D7805AC182F7F1EF06C88D9BE6703008B6049F9E274D7A1E938DBB5AE3D6131B2589BA0D3D965551E0B2EA732C9B9A624AAEB41E3A557677029960D9AFB4EF11165F504B0304140006080800CC70623B4FEEA4082C0100001202000031
310
0000006662782F39464131463745442D413632322D343644302D413938332D3331353338454246344243312F636F72652E786D6C8D515B6EC32010BC0AE2AB55850DD871ED0813254D72825EC00192A2C460F1A872FC42ED48ED5F7E00CDCECCCEB26C731F6FE05B39AFADE921293004CA082BB5B9F43086336A21D870E6AC
310
0D7F68109861543DCC30E4ECE26C9C164858139409093556AA051CBC570102714B8F1E7AF1A5C6A11862480C7F2DA6415C878B2A4891CA89C7990F2E050073937C42DE1DB7E4F87ED8A36D4329AA9B3D46DBAEAD504556557BD81DEBDD0761E52CE42C462D17B996298E3E6BE59E35C962CE821E1FF18553435012728A7187
310
0841987E927A8D9B35ADDF70BBC6989599FE4F1427F9A4286A132ABAC49D651EF234CD5CE04CDA78BA3DC2A8FB645D00B9DF8B57E215725C60BCA2A463E54C4CE327C7A65E1C7DB02E7DEFCBF594B864C5CA6CDBD49C957943E9FA5D5FBAF336F90F504B0304140006080800CC70623BAD7543B64E01000033030000300000
310
006662782F39464131463745442D413632322D343644302D413938332D3331353338454246344243312F636E782E786D6CD593CD6EC32010845F0571AD6CE3D48AD20813A9873E410FBD12D82434182C7EAAE6EDBB2424CD25871E7B41D6EC30B3FA84F9E67BB2E40B4234DE8DB46F1925E094D7C6ED479AD3AE5951B2113C
310
789FEE6C943839C1488B4C05DF079FE72A69D8C96C13AAD6B8631503449F83828872B949AC57D26200B826A308D316B4064D6E46FCDA41C05550DC9E483A00797BFD207EFB092A45DE9514C1BBD22178396BD39D891265658C238DEA00936C654E5E433CB65A26D9F6EDB5EBC14EBF49A45CB856E66048291F6939A9A81BB5
310
C8917738143CA680F4AA299D66A042CEB3354A2684DC9D8D178FE0D9B8B41CAAD720F880EE7EF93C0C18769E099ECC04D5A102C8049A8A05632F4DDF376CF1DE0F6BB65C2F8627B65A33C6BB62177CEBBDAD973006829F89F22E814B54F4BC2BE347F8AA8F681390B50FA73F804400B5F542E796F19FF974E7F78DB802FE05
310
E207504B0304140006080800CC70623B16AB87BA640500003C100000340000006662782F39464131463745442D413632322D343644302D413938332D3331353338454246344243312F6F626A656374732E786D6CAD575B6FA33818FD2B887DE6924B3BED8A326A92B68A663B534DD4D13E548A0C38942D60649B369D5FBFC7
310
600890A493BDE42160637FD7F31D7FF63E6FB3D478A55C242CBF3247B66B1A340F5994E4F19559CA8D75611A9F7D8F33263BCB4C232719BD32D5B4E97B316765A1A722BA21652A07B3B7B33F0D11D29C9A46981221AE4C113ED38CD8A4942CA2E2C58E882476BCD9DA23BB5ED8171B73523C0F841684D35CC252CCE79062D4
310
468DFA43D7747CCF51DF7D4FFDEB5593E3AB9CCA9FBEFE241792E4E19EB28198C968BAB8199F5D5A67D3E9C49A9E8F47D6EC76B6B0469F26EEFC7C3EBFBCBEB98462213924694B38DD98FE1D62C393D073EA4FADC5DAF04326852CCF6958F90F0F2B9BB5C48816348F90C7840A68EB78EDF68723159BCEE7891A6B95DDE9D3
310
BCEAEEE8086A6C6F9E5D4B59F0175C10A7A0820BAA5055C7473B5AE3CFDD452D602CD5DF12616444529E90D448938013FE6EFA58AA96F85E4F8C42275708571E98FE6827AF6B2B4AE3D7D83D64E5A64C53054DD3AF90BD06FEA9149565C94FCA0F6B834DC85599E4F2423B24DF0B6AFA979E534DFA9E7A4CC6FA631D486393
310
921829879BF5D781A373557BCB85E97FB90DB62B558F8795179C15944B051F40AB495CF35451D26A4727654E6D8033BD98EF82F21D91FF8AF2DD9982BCF1643BDD4EB516C9492E368C67C88DED563FC36D5EACF66DFF057C3658BDBFA69DF9578B3DA735B64F18C7F20770A9D45CFCF7FCF563D6456A277DBEF78A02637CA2
310
43B90A490AEAB94F72244481D24819A6C0E59B606BFA4B3025981DBB48EAB701D97BF19C577CC77F2D1B6C55A9EF3C732474C0B727303F625995056C3B02963D9EAC146BE78EC5FCEC7FA999EBC5EACBAAE41B12D27B4D2C0BBA49F244E2ECDC81B76B502F113D8F5EE8FB1BE3111CDD4FC2AA9B844CAB1288B68AB90A7CDC
310
1C166AB0D3DC5310625FCC14E779BFD0709F8890A629C9292B1B2DED31A4B0DA928CEE135085754027E3018A397D4D5427D15BD1330B677DC8934285AC3DF45A9EB68FF8F2B8FC0A509AFEECFD0FF2DE25CC6047F7214B195F07EFEB9A094D800F7BFAE8FED187B78EA8A3A400F115961BCAD1215E47C966530AF0EE8128FE
310
58CEBB996A8964FFA529A046635D9353B0336A8F700DDF46271A024E70B0B37C9DE01847591E54DED53D54202AB947E4076556AC49C6CA5C9E1226B7F1A7B1BE15DEED62C41B91E1B3E9AFAAA735036547343A925075041DF0A9979E893B391F8FCFA6967B3EFB644DCF6E5CEBFAE272625DCC6FAF3FB93793C5F90CE1EF57
310
407342756B10D1C489E8953CD1617E5CEECAD6F4EF8914CE5D5D504E5C3F1F9736DA62CFC11E00BCDDB8CC8A9466349744C1F75EBDA4DF09BA8A9E8C7A7E9991989E20E5DBDD6A6003664ED8F7A04A8DBE0DF6EAD9B9AA858342E47399053949D2C146EDB85DE4B176BB0965FBAC19BD19AA918E27FA50C1D22402E144464C
310
59462568E704B6E71915404CB72B8FF4EDE184DDAF753F284990D2C6926782963815403548A70C657FDEF80D2D9CEAA2AE4C1C76F60BFE74219A06527D6582DF6412526107381E55E353090704D085B52408D0933C4ED159D79BDA71BB4BC506F4831350EB6F979CD22D69BF7AC49B91A2C0A9DDA3D5CA36AD20FC478E37E6
310
1844E2352865EBCB6EA275A652E3836BE04EFB400BF1A2556F515F1FBB35B2AB35BD889C744FFA1004B5544B121E57F70215746DD2F5E2C1412B602CBF19455AC6C8E5E9922C4E01E65215385004546899059180EAFCF7A707CE7017CD8CDB0410789AB32C63B91E5CEBBBACB17AC6CD347A022D5075FD106377347AAABA7E
310
7D11590744509B44E205134DC1290F06580320F78E537D3D73540E06CB970B431F185308AD40BBD794D6D77003C5A36E8EAA54BA64597CD8F83BD552A080A365F7FF06504B0304140006080000CC70623B000000000000000000000000350000006662782F39464131463745442D413632322D343644302D413938332D3331
310
353338454246344243312F76657274696365732E62696E504B0304140006080800CC70623BF270F1330600000004000000360000006662782F39464131463745442D413632322D343644302D413938332D3331353338454246344243312F747269616E676C65732E62696E636660600000504B0304140006080000CC70623B
310
000000000000000000000000370000006662782F39464131463745442D413632322D343644302D413938332D3331353338454246344243312F617474726962757465732E62696E504B0304140006080800CC70623B08DA0BD19000000041010000360000006662782F39464131463745442D413632322D343644302D413938
310
332D3331353338454246344243312F6469726563746F72792E786D6C858F410AC3201045AF22B36F53E9A60B35CBEEBAE80D244E44489C6234F4F835464A48035D0DF398FF9F8AF63D0E6CC63039F212F8F9020C7D47C6792B21C5FE7403D62A1188E2E60C98D7234A5830286103A55745067B9D86B8A3CF9C7F90C11DE607
310
FB144396D7B6A82D282E9A152AD114D5EF2CB866EEE831B8EEA07A7BB5A8D7D61A2BAAEB7FD5F70921FF497D00504B0304140006080800CC70623B0D6EF93BFE000000A00100003B0000006662782F39464131463745442D413632322D343644302D413938332D3331353338454246344243312F7265736F75726365732F63
310
6F72652E786D6C8D50596E833010BD0A9ADFCA60B334011947A8694ED00B586642AC041B79A97AFC9A40A5F6AF3F33A3B7689E1E3F7DCD8FEC139DD7D6F4C0720A191A65476DA61E62B892236427C19DB5E1970C322367EC618541F0C9D9B8EC90B226A009093576C41D94DE63804C3DD2D18357379C652E63480A7FCF17A9
310
EE72C29CE5894E3AC17D702940B63D59270887DE46A7D0F36263058F518FBB468FE9A7BE6A7420864373B8D4873369AA8691FA421B3294352543C5CAF65C0F6FEF43CB8BD52C78D0F34F46E550061C419494B6843142CB0F5677F4B52BEB177AEC28E5C52AFF638ACBF84F53D42654E51E77B379102C05791282176B5F693D
310
CB4C7BED567C03504B010214000A0000080000CC70623B3DEE336E79000000790000001B00000000000000000000000000000000006175746F6465736B2D64657369676E2D7061636B6167652E786D6C504B01021400140006080800CC70623BD486FD9CA0000000F40000001300000000000000000000000000B20000005B
310
436F6E74656E745F54797065735D2E786D6C504B01021400140006080800CC70623B1EC5D7A3EB0000007C010000080000000000000000000000000083010000636F72652E786D6C504B01021400140006080800CC70623B55019EA25F0000007C000000070000000000000000000000000094020000636E782E786D6C504B
310
01021400140006080800CC70623B8C9102E971010000D40300000C00000000000000000000000000180300006662782F636F72652E786D6C504B01021400140006080800CC70623BFFEA85907E0000009D0000000B00000000000000000000000000B30400006662782F636E782E786D6C504B01021400140006080800CC70
310
623B4FEEA4082C0100001202000031000000000000000000000000005A0500006662782F39464131463745442D413632322D343644302D413938332D3331353338454246344243312F636F72652E786D6C504B01021400140006080800CC70623BAD7543B64E010000330300003000000000000000000000000000D5060000
310
6662782F39464131463745442D413632322D343644302D413938332D3331353338454246344243312F636E782E786D6C504B01021400140006080800CC70623B16AB87BA640500003C1000003400000000000000000000000000710800006662782F39464131463745442D413632322D343644302D413938332D3331353338
310
454246344243312F6F626A656374732E786D6C504B01021400140006080000CC70623B0000000000000000000000003500000000000000000000000000270E00006662782F39464131463745442D413632322D343644302D413938332D3331353338454246344243312F76657274696365732E62696E504B01021400140006
310
080800CC70623BF270F133060000000400000036000000000000000000000000007A0E00006662782F39464131463745442D413632322D343644302D413938332D3331353338454246344243312F747269616E676C65732E62696E504B01021400140006080000CC70623B0000000000000000000000003700000000000000
310
000000000000D40E00006662782F39464131463745442D413632322D343644302D413938332D3331353338454246344243312F617474726962757465732E62696E504B01021400140006080800CC70623B08DA0BD190000000410100003600000000000000000000000000290F00006662782F39464131463745442D413632
310
322D343644302D413938332D3331353338454246344243312F6469726563746F72792E786D6C504B01021400140006080800CC70623B0D6EF93BFE000000A00100003B000000000000000000000000000D1000006662782F39464131463745442D413632322D343644302D413938332D3331353338454246344243312F7265
310
736F75726365732F636F72652E786D6C504B0506000000000E000E0080040000641100000000
  0
XRECORD
  5
175
102
{ACAD_REACTORS
330
173
102
}
330
173
100
AcDbXrecord
280
     1
270
     1
271
     1
  0
XRECORD
  5
174
102
{ACAD_REACTORS
330
173
102
}
330
173
100
AcDbXrecord
280
     1
270
     1
271
     1
  0
XRECORD
  5
1FB
102
{ACAD_REACTORS
330
173
102
}
330
173
100
AcDbXrecord
280
     1
 70
     0
 90
1673772943
  1
ECE7A1D2-D628-4531-984C-D00F80459256
310
504B03040A0000080000CC70623B3DEE336E79000000790000001B0000006175746F6465736B2D64657369676E2D7061636B6167652E786D6C3C3F786D6C2076657273696F6E3D22312E302220656E636F64696E673D227574662D3822203F3E3C666F726D6174733E3C666F726D61743E687474703A2F2F736368656D612E
310
6175746F6465736B2E636F6D2F64657369676E2D7061636B6167652F323030393C2F666F726D61743E3C2F666F726D6174733E504B0304140006080800CC70623BD486FD9CA0000000F4000000130000005B436F6E74656E745F54797065735D2E786D6C7D8EC10E82300C865F65E91D8A1E8C310C0EEA1BF002731658846E
310
D98AC1B77784ABF1D8FE5FBFBF75BBCE937A534CCEB38643598122B6FEE978D0B0485F9C41B54DDD7D022595594E1A469170414C76A4D9A4D207E29CF43ECE46F218070CC6BECC4078ACAA135ACF422C856C0E68EA1BF5669944DDD7BCDE7B1F8E415D77AECB980613C2E4AC91FC167A2B244592486606FC29C8FD7F045B9A
310
EF7053A7E60B504B0304140006080800CC70623BD9DDAED0EC0000007C01000008000000636F72652E786D6C8D90416EC3201045AF82665B61836D9CD8C2444DD39CA01740405C94182C03558F5F9C3852BBEB6A467FFE9B197D7EF89E6EE8CB2CC17A37002D0820E394D7D68D03A478C17B4007C117EFE32F1B20272733C0
310
2A83E0E3E2D3BC49CABB685CCCAAF3DA6CA20CC14440EA969B0182FA34932C648AD911AEC52CD5558EA6A0CF2EC329598D1E47ACCEFBECC59A050463A7EA5833865FEBDD0E37353BE3EE8DBDE3F6786A48D375FBF6CC78B9C282473B3DEFABC5C86834888A900E538A49F5419B9EB47DD5BC907D4F082F57FB1F28CDFA9F50
310
B22ED6D5F6EE030B20687EE43E10BC5CB3C8E51E54AE6B6EE207504B0304140006080800CC70623B55019EA25F0000007C00000007000000636E782E786D6C4DCB3B0E80201045D1AD90E915ED2CF8AC45050C11660C8261F98AB1B07AC9C97D42D718D865D3E909258CFD00CCE24AC6E326A164D74DC0B4128928FF326038
310
472BA13128B1252AC747C6BAB984FC68F0B87FE8960A5C09FE86CFB69FBA01504B0304140006080800CC70623BA24EB22D72010000D40300000C0000006662782F636F72652E786D6CC5535B6E833010BC8AE5DF0A6C5E49888CA3A6694ED00B38E05014B091B1518EDFE511A5A9D228FD2A1F60CDEC7A67C6986DCE4D8D7A
310
69BA4AAB0C073EC548AA5C17952A33ECECD15B61B4E1CC686DBF9561A44423333CC098B3D268D7CE50AE9595CA02AA74216750749DB418E5352C32DCE59FB211BE70162ABA93DF8AFC244AE9073ED050C759670D0840D390E18DF9F1706664C23973AE2A66B62A605A75ACA4C13C4976E1364A12EF355A2EBD384AF65EFA96
310
BC7B8BED2EA6719AAE16FB8491A199335B351775B991C2CA02F390D2D40B028F861F41BCA68B7518BFD0D59A524686F29B26D7164F36B94AD9289CE54E6D1DE6010819891F6E21228B3AD1831EC219194284CF98F06DD01008846CC5A1BEF83801D4CBDC6A1303536877A57A513B0953A94FC707FDBE6064EA84A9E3E6E0FA
310
EE8CF0E9198F7784A316AA0413C2C2F2E0ECA0934D1AE6D05A69BCDE9E91D2A611F573361E38FC1375157F5752AE6B6DFE4B11990F88CCBF0719EE23FF02504B0304140006080800CC70623B408A7D3B7C0000009D0000000B0000006662782F636E782E786D6C4DCCD10A83201886E15B91FFDC552A92A0064DBC8F581632
310
D3703A76F9ABD1C18E3E78F878E5F0D9027ABBFCF2292AE86E2D20171F69F6715550CB827B40839639A5F2770314A7CD293819B45C73AAFB45B35BA61ACAA1C1C7E7855C58C15BC331339661262CC762340413D68D77DA5B42298546CBE6573AF60CEB2F504B0304140006080800CC70623B449FB9BD290100001202000031
310
0000006662782F36394639363044362D344446342D343946362D394244322D3234314243333846323333332F636F72652E786D6C8D515B6EC32010BC0AE22B55850D98B871848994463E412FE002495162B07854397EA176A4F62F3F2C9A9D991D587EB84F37F0AD7D30CEF6905418026DA553C65E7A98E219ED203808EE9D
310
8B7F6810D871D23D2C3014FCE25D9A57483A1BB58D19B54EE9151C43D0110279CB971E06F9A5A7B11A53CC8C70ADE6515EC78BAE4895DB992778883E0700CB907242D17643D7E2538BD869608875438BBAE38922CAC8F1BDD90DB4691A5E2F42C153326A951B95E398B3D1FE599322163C9AE9115F7A3D46ADA0A018778810
310
84E907617BDCEE297BC5BB3DC6BC2EF47FA234AB2745C9D8D8D035EE220B50105E2F0DC1954B9FB747187D9F9D8FA0CCDB042D5FA0C015C65B42DF78BD10F3F3B363CB56C7109DCFDFBBB97E662ED92EB62D13BC2E1BCAE5777DB9966D8A1F504B0304140006080800CC70623BAD7543B64E01000033030000300000006662
310
782F36394639363044362D344446342D343946362D394244322D3234314243333846323333332F636E782E786D6CD593CD6EC32010845F0571AD6CE3D48AD20813A9873E410FBD12D82434182C7EAAE6EDBB2424CD25871E7B41D6EC30B3FA84F9E67BB2E40B4234DE8DB46F1925E094D7C6ED479AD3AE5951B2113C789FEE
310
6C943839C1488B4C05DF079FE72A69D8C96C13AAD6B8631503449F83828872B949AC57D26200B826A308D316B4064D6E46FCDA41C05550DC9E483A00797BFD207EFB092A45DE9514C1BBD22178396BD39D891265658C238DEA00936C654E5E433CB65A26D9F6EDB5EBC14EBF49A45CB856E66048291F6939A9A81BB5C89177
310
38143CA680F4AA299D66A042CEB3354A2684DC9D8D178FE0D9B8B41CAAD720F880EE7EF93C0C18769E099ECC04D5A102C8049A8A05632F4DDF376CF1DE0F6BB65C2F8627B65A33C6BB62177CEBBDAD973006829F89F22E814B54F4BC2BE347F8AA8F681390B50FA73F804400B5F542E796F19FF974E7F78DB802FE05E20750
310
4B0304140006080800CC70623B8D05915C650500003B100000340000006662782F36394639363044362D344446342D343946362D394244322D3234314243333846323333332F6F626A656374732E786D6CAD575B6FA33814FE2B887D06429276DA1565D4266D158D3A339A6846FB502932E050B66023DB74D2FDF5FB190C01
310
9276B2973C046C8ECFF53B17071F77456EBD502133CEAE6CDF9DD81665314F32965ED995DA3A17B6F5310C04E7AA47665B8C14F4CAD6DB7618A48257A5D94AE89654B91AEDDEDDFC61C998326A5B714EA4BCB265FC440BE2924AF184CA6737218AB8E976E7FA6E4338649B0A523E8D98964450A6A029F619B8588D52FE7039
310
B1BD30F0F4F730D0FF866AF6369557DB33949F31A9088B0F848DD8CCFCF9F2767A76E99CCDE733677E3EF59D9BBB9BA5E37F984D16E78BC5E5F5ED25044B25C0C96822E8D60EEFE11B91C581D77CEA34368A1F5329E68CD1B8B61F16D63A1B8E092D294B10C78C4A48EB593D192E7DED9BDEE7995E1B91FDEDD3ACEA9FE831
310
6A756F9F7D4D79F4274C90A7A04248AA51D5F8C718DAE06FB2F75AC4796EBE65D22A88A22223B995679120E2D50E41AA49C260C046A35368846B0BECD0DFF3EBEB8AD4F835768F69B9ADF25C43D30E6B646F807FAA64AD59F61715C7A54127C4AACA98BA3006A9D792DAE165E0D59B61A01FB3A9F9D838D2DAE62445C86166
310
F37564E842E7DE6A69879FEEA2DD5AE7E371E1A5E025154AC307D06A03D73EB5978C58FFA4C8E9033066E0F3BD53BEC1F39F91BE7B55103791EDE6BBB991A2046172CB4581D8B893FA674DDA17A77B3B7C413D1B511FD2743BFF8A38F03A658705E3ADF8015C3A3417FF3D7E439FF591DA0B5F18BC20C1B8981957AE6392A3
310
F43C640C01D1A0B4728E2DD4F26DB4B3C3152A252A3B4E913CEC1C72F012782FF88EFF8637AA552DBEF76408E8A8DE9E50F9E1CB3A2DA0DB1B6039A893B56063DC5B3E3FFB5F72E67AB9FEB4AEC496C4F4C1149625DD662C53E89D7BF0F6151A046260D1337DFDC94502430F83B0EE07A130A224BCAD7DAE1D9FB6CD422FF6
310
920702629C4BB9AE79C12F243C6432A6794E18E5552BA56B431AAB5D91317302B2B071E86C3A42B1A02F999E24061403B5D0EB639195DA655DD3EBEAB4FB862DDF579F014AD0E73C22F99E28DA57FB98E75C6CA2D74D53086D600F4786E0FE3144B771A8A7B900F03594DB8A633CBC49B2EDB69228BB479CF863B5E807AAAB
310
23872F6DFEB4129B949CA33823F58830E86D65621E10047D9DB34D862E8EAC3C2ABC2F7B2C40D67CDFE01F5545B92105AF983AC54D93D69E56FB8E797F88913F898A9FEC705D3F9D1B54EC8426FB500D40A03BD0119B06E1B95DDC7EB8F6975367793EBD70E66733DFB9BC982F9CE564727731999F5D4ECFCE3B8D6A4DC2A0
310
6D50FD148437D110834A64C6CDDF57FBACB5C307A2A477DFE4939736CFEF2B175371E0E10CF0DD1D5C15654E0BCA14D1E87DD02FF93782A162C0A3D95F1524A52770F972BF1EE9809D13CE7DD599467F8ECE9ADD85CE85A34CD45355448C64F9E8A031DC2D596ACC6E5DD93D9B82DE2EF5CAF81363A8E47996A0DE24564A79
310
4115AACE09C55E14540231FDA13C319787134EBF34E3A022514E5B4D9E0826E25C02D5805B15ABE1BEF51B26383D445DD9E875EE33FE4C22DA16427D65A3BCA92CA6D28DD01DF5DC53330704308475351050232CCD31583787BA75774AFB06E5070DD0C8EF484E19968C5D83BA5B90B244D31E54D55A372320FE4786B7EA58
310
44E135AA5467CB7EA333A61683CC6A8C3257034C10CF46F40EF9F5BE59BE5BD30C3C72D235E95D10345C1D45445A5F0BB47E46A5EBE5570F9380B5FA629579952296A773720405982B9DE04011506178964401AA8BDF1FBF0A8EAB6861DD6580C0E38217056766716DAEB2D6FA0917D3E4116581EADB879C4E7CFFB11EFACD
310
3D641311495D92C8676CB409A72D18610D803CE8A626049E8EC1887CB5B44CC39883690DDA8399B4B9855B481E7D71D4A9D22F96E5BB73BF5793020C02137BF837504B0304140006080000CC70623B000000000000000000000000350000006662782F36394639363044362D344446342D343946362D394244322D32343142
310
43333846323333332F76657274696365732E62696E504B0304140006080800CC70623BF270F1330600000004000000360000006662782F36394639363044362D344446342D343946362D394244322D3234314243333846323333332F747269616E676C65732E62696E636660600000504B0304140006080000CC70623B0000
310
00000000000000000000370000006662782F36394639363044362D344446342D343946362D394244322D3234314243333846323333332F617474726962757465732E62696E504B0304140006080800CC70623B08DA0BD19000000041010000360000006662782F36394639363044362D344446342D343946362D394244322D
310
3234314243333846323333332F6469726563746F72792E786D6C858F410AC3201045AF22B36F53E9A60B35CBEEBAE80D244E44489C6234F4F835464A48035D0DF398FF9F8AF63D0E6CC63039F212F8F9020C7D47C6792B21C5FE7403D62A1188E2E60C98D7234A5830286103A55745067B9D86B8A3CF9C7F90C11DE607FB14
310
4396D7B6A82D282E9A152AD114D5EF2CB866EEE831B8EEA07A7BB5A8D7D61A2BAAEB7FD5F70921FF497D00504B0304140006080800CC70623BCA768048FE000000A00100003B0000006662782F36394639363044362D344446342D343946362D394244322D3234314243333846323333332F7265736F75726365732F636F72
310
652E786D6C8D50596E833010BD0A9ADFCA60D600328E9AA639412F609909B1126CE4A5EAF16B0295DABFFECC8CDEA2797AECF8353F924FB44E193D409E5248504B332A3D0D10FC95B4901C39B3C6F85F3248B49871801506CE266BC2B243D2688FDA47549B11775038871E12F988C7004EDE7016A9083E2ADC3D5D84BC8B09
310
D33C8D74D471E6BC8D0192EDC93A815B742658898E651BCB59086ADC356A8C3FD555A1055ED7E7E254D615792D0F075295F585746FF53B694EE78A565DD736979A65AB9933AFE69F8CD2A2F038022F28ED489E135A7CE4554F9BBEA85E68DB53CAB255FEC71496F19FA6A0B42F8B3DEE6673C0F318E4497096AD7DC5F52C33
310
EEB55BFE0D504B010214000A0000080000CC70623B3DEE336E79000000790000001B00000000000000000000000000000000006175746F6465736B2D64657369676E2D7061636B6167652E786D6C504B01021400140006080800CC70623BD486FD9CA0000000F40000001300000000000000000000000000B20000005B436F
310
6E74656E745F54797065735D2E786D6C504B01021400140006080800CC70623BD9DDAED0EC0000007C010000080000000000000000000000000083010000636F72652E786D6C504B01021400140006080800CC70623B55019EA25F0000007C000000070000000000000000000000000095020000636E782E786D6C504B0102
310
1400140006080800CC70623BA24EB22D72010000D40300000C00000000000000000000000000190300006662782F636F72652E786D6C504B01021400140006080800CC70623B408A7D3B7C0000009D0000000B00000000000000000000000000B50400006662782F636E782E786D6C504B01021400140006080800CC70623B
310
449FB9BD290100001202000031000000000000000000000000005A0500006662782F36394639363044362D344446342D343946362D394244322D3234314243333846323333332F636F72652E786D6C504B01021400140006080800CC70623BAD7543B64E010000330300003000000000000000000000000000D20600006662
310
782F36394639363044362D344446342D343946362D394244322D3234314243333846323333332F636E782E786D6C504B01021400140006080800CC70623B8D05915C650500003B10000034000000000000000000000000006E0800006662782F36394639363044362D344446342D343946362D394244322D32343142433338
310
46323333332F6F626A656374732E786D6C504B01021400140006080000CC70623B0000000000000000000000003500000000000000000000000000250E00006662782F36394639363044362D344446342D343946362D394244322D3234314243333846323333332F76657274696365732E62696E504B010214001400060808
310
00CC70623BF270F13306000000040000003600000000000000000000000000780E00006662782F36394639363044362D344446342D343946362D394244322D3234314243333846323333332F747269616E676C65732E62696E504B01021400140006080000CC70623B00000000000000000000000037000000000000000000
310
00000000D20E00006662782F36394639363044362D344446342D343946362D394244322D3234314243333846323333332F617474726962757465732E62696E504B01021400140006080800CC70623B08DA0BD190000000410100003600000000000000000000000000270F00006662782F36394639363044362D344446342D
310
343946362D394244322D3234314243333846323333332F6469726563746F72792E786D6C504B01021400140006080800CC70623BCA768048FE000000A00100003B000000000000000000000000000B1000006662782F36394639363044362D344446342D343946362D394244322D3234314243333846323333332F7265736F
310
75726365732F636F72652E786D6C504B0506000000000E000E0080040000621100000000
  0
XRECORD
  5
176
102
{ACAD_REACTORS
330
173
102
}
330
173
100
AcDbXrecord
280
     1
270
     1
271
     1
  0
XRECORD
  5
177
102
{ACAD_REACTORS
330
173
102
}
330
173
100
AcDbXrecord
280
     1
270
     1
271
     1
  0
CELLSTYLEMAP
  5
8C6
102
{ACAD_REACTORS
330
162
102
}
330
162
100
AcDbCellStyleMap
 90
        3
300
CELLSTYLE
  1
TABLEFORMAT_BEGIN
 90
        5
170
     1
 91
        0
 92
    32768
 62
   257
 93
        1
300
CONTENTFORMAT
  1
CONTENTFORMAT_BEGIN
 90
        0
 91
        0
 92
      512
 93
        0
300

 40
0.0
140
1.0
 94
        5
 62
     0
340
11
144
6.0
309
CONTENTFORMAT_END
171
     1
301
MARGIN
  1
CELLMARGIN_BEGIN
 40
1.5
 40
1.5
 40
1.5
 40
1.5
 40
4.5
 40
4.5
309
CELLMARGIN_END
 94
        6
 95
        1
302
GRIDFORMAT
  1
GRIDFORMAT_BEGIN
 90
        0
 91
        1
 62
     0
 92
       -2
340
14
 93
        0
 40
1.125
309
GRIDFORMAT_END
 95
        2
302
GRIDFORMAT
  1
GRIDFORMAT_BEGIN
 90
        0
 91
        1
 62
     0
 92
       -2
340
14
 93
        0
 40
1.125
309
GRIDFORMAT_END
 95
        4
302
GRIDFORMAT
  1
GRIDFORMAT_BEGIN
 90
        0
 91
        1
 62
     0
 92
       -2
340
14
 93
        0
 40
1.125
309
GRIDFORMAT_END
 95
        8
302
GRIDFORMAT
  1
GRIDFORMAT_BEGIN
 90
        0
 91
        1
 62
     0
 92
       -2
340
14
 93
        0
 40
1.125
309
GRIDFORMAT_END
 95
       16
302
GRIDFORMAT
  1
GRIDFORMAT_BEGIN
 90
        0
 91
        1
 62
     0
 92
       -2
340
14
 93
        0
 40
1.125
309
GRIDFORMAT_END
 95
       32
302
GRIDFORMAT
  1
GRIDFORMAT_BEGIN
 90
        0
 91
        1
 62
     0
 92
       -2
340
14
 93
        0
 40
1.125
309
GRIDFORMAT_END
309
TABLEFORMAT_END
  1
CELLSTYLE_BEGIN
 90
        1
 91
        1
300
_TITLE
309
CELLSTYLE_END
300
CELLSTYLE
  1
TABLEFORMAT_BEGIN
 90
        5
170
     1
 91
        0
 92
        0
 62
   257
 93
        1
300
CONTENTFORMAT
  1
CONTENTFORMAT_BEGIN
 90
        0
 91
        0
 92
      512
 93
        0
300

 40
0.0
140
1.0
 94
        5
 62
     0
340
11
144
4.5
309
CONTENTFORMAT_END
171
     1
301
MARGIN
  1
CELLMARGIN_BEGIN
 40
1.5
 40
1.5
 40
1.5
 40
1.5
 40
4.5
 40
4.5
309
CELLMARGIN_END
 94
        6
 95
        1
302
GRIDFORMAT
  1
GRIDFORMAT_BEGIN
 90
        0
 91
        1
 62
     0
 92
       -2
340
14
 93
        0
 40
1.125
309
GRIDFORMAT_END
 95
        2
302
GRIDFORMAT
  1
GRIDFORMAT_BEGIN
 90
        0
 91
        1
 62
     0
 92
       -2
340
14
 93
        0
 40
1.125
309
GRIDFORMAT_END
 95
        4
302
GRIDFORMAT
  1
GRIDFORMAT_BEGIN
 90
        0
 91
        1
 62
     0
 92
       -2
340
14
 93
        0
 40
1.125
309
GRIDFORMAT_END
 95
        8
302
GRIDFORMAT
  1
GRIDFORMAT_BEGIN
 90
        0
 91
        1
 62
     0
 92
       -2
340
14
 93
        0
 40
1.125
309
GRIDFORMAT_END
 95
       16
302
GRIDFORMAT
  1
GRIDFORMAT_BEGIN
 90
        0
 91
        1
 62
     0
 92
       -2
340
14
 93
        0
 40
1.125
309
GRIDFORMAT_END
 95
       32
302
GRIDFORMAT
  1
GRIDFORMAT_BEGIN
 90
        0
 91
        1
 62
     0
 92
       -2
340
14
 93
        0
 40
1.125
309
GRIDFORMAT_END
309
TABLEFORMAT_END
  1
CELLSTYLE_BEGIN
 90
        2
 91
        1
300
_HEADER
309
CELLSTYLE_END
300
CELLSTYLE
  1
TABLEFORMAT_BEGIN
 90
        5
170
     1
 91
        0
 92
        0
 62
   257
 93
        1
300
CONTENTFORMAT
  1
CONTENTFORMAT_BEGIN
 90
        0
 91
        0
 92
      512
 93
        0
300

 40
0.0
140
1.0
 94
        2
 62
     0
340
11
144
4.5
309
CONTENTFORMAT_END
171
     1
301
MARGIN
  1
CELLMARGIN_BEGIN
 40
1.5
 40
1.5
 40
1.5
 40
1.5
 40
4.5
 40
4.5
309
CELLMARGIN_END
 94
        6
 95
        1
302
GRIDFORMAT
  1
GRIDFORMAT_BEGIN
 90
        0
 91
        1
 62
     0
 92
       -2
340
14
 93
        0
 40
1.125
309
GRIDFORMAT_END
 95
        2
302
GRIDFORMAT
  1
GRIDFORMAT_BEGIN
 90
        0
 91
        1
 62
     0
 92
       -2
340
14
 93
        0
 40
1.125
309
GRIDFORMAT_END
 95
        4
302
GRIDFORMAT
  1
GRIDFORMAT_BEGIN
 90
        0
 91
        1
 62
     0
 92
       -2
340
14
 93
        0
 40
1.125
309
GRIDFORMAT_END
 95
        8
302
GRIDFORMAT
  1
GRIDFORMAT_BEGIN
 90
        0
 91
        1
 62
     0
 92
       -2
340
14
 93
        0
 40
1.125
309
GRIDFORMAT_END
 95
       16
302
GRIDFORMAT
  1
GRIDFORMAT_BEGIN
 90
        0
 91
        1
 62
     0
 92
       -2
340
14
 93
        0
 40
1.125
309
GRIDFORMAT_END
 95
       32
302
GRIDFORMAT
  1
GRIDFORMAT_BEGIN
 90
        0
 91
        1
 62
     0
 92
       -2
340
14
 93
        0
 40
1.125
309
GRIDFORMAT_END
309
TABLEFORMAT_END
  1
CELLSTYLE_BEGIN
 90
        3
 91
        2
300
_DATA
309
CELLSTYLE_END
  0
ENDSEC
  0
SECTION
  2
ACDSDATA
 70
     2
 71
     8
  0
ACDSSCHEMA
 90
        0
  1
AcDb_Thumbnail_Schema
  2
AcDbDs::ID
280
    10
 91
        8
  2
Thumbnail_Data
280
    15
 91
        0
101
ACDSRECORD
 95
        0
 90
        1
  2
AcDbDs::TreatedAsObjectData
280
     1
291
     1
101
ACDSRECORD
 95
        0
 90
        2
  2
AcDbDs::Legacy
280
     1
291
     1
101
ACDSRECORD
  1
AcDbDs::ID
 90
        3
  2
AcDs:Indexable
280
     1
291
     1
101
ACDSRECORD
  1
AcDbDs::ID
 90
        4
  2
AcDbDs::HandleAttribute
280
     7
282
     1
  0
ACDSSCHEMA
 90
        1
  1
AcDbDs::TreatedAsObjectDataSchema
  2
AcDbDs::TreatedAsObjectData
280
     1
 91
        0
  0
ACDSSCHEMA
 90
        2
  1
AcDbDs::LegacySchema
  2
AcDbDs::Legacy
280
     1
 91
        0
  0
ACDSSCHEMA
 90
        3
  1
AcDbDs::IndexedPropertySchema
  2
AcDs:Indexable
280
     1
 91
        0
  0
ACDSSCHEMA
 90
        4
  1
AcDbDs::HandleAttributeSchema
  2
AcDbDs::HandleAttribute
280
     7
 91
        1
284
     1
  0
ACDSRECORD
 90
        0
  2
AcDbDs::ID
280
    10
320
22
  2
Thumbnail_Data
280
    15
 94
     1315
310
89504E470D0A1A0A0000000D49484452000001000000007C0803000000B13B9E5A00000300504C5445212830FFFFFF2128300000000000000000000000000000000000000000000000000000330000660000990000CC0000FF0033000033330033660033990033CC0033FF0066000066330066660066990066CC0066FF0099
310
000099330099660099990099CC0099FF00CC0000CC3300CC6600CC9900CCCC00CCFF00FF0000FF3300FF6600FF9900FFCC00FFFF3300003300333300663300993300CC3300FF3333003333333333663333993333CC3333FF3366003366333366663366993366CC3366FF3399003399333399663399993399CC3399FF33CC00
310
33CC3333CC6633CC9933CCCC33CCFF33FF0033FF3333FF6633FF9933FFCC33FFFF6600006600336600666600996600CC6600FF6633006633336633666633996633CC6633FF6666006666336666666666996666CC6666FF6699006699336699666699996699CC6699FF66CC0066CC3366CC6666CC9966CCCC66CCFF66FF0066
310
FF3366FF6666FF9966FFCC66FFFF9900009900339900669900999900CC9900FF9933009933339933669933999933CC9933FF9966009966339966669966999966CC9966FF9999009999339999669999999999CC9999FF99CC0099CC3399CC6699CC9999CCCC99CCFF99FF0099FF3399FF6699FF9999FFCC99FFFFCC0000CC00
310
33CC0066CC0099CC00CCCC00FFCC3300CC3333CC3366CC3399CC33CCCC33FFCC6600CC6633CC6666CC6699CC66CCCC66FFCC9900CC9933CC9966CC9999CC99CCCC99FFCCCC00CCCC33CCCC66CCCC99CCCCCCCCCCFFCCFF00CCFF33CCFF66CCFF99CCFFCCCCFFFFFF0000FF0033FF0066FF0099FF00CCFF00FFFF3300FF3333
310
FF3366FF3399FF33CCFF33FFFF6600FF6633FF6666FF6699FF66CCFF66FFFF9900FF9933FF9966FF9999FF99CCFF99FFFFCC00FFCC33FFCC66FFCC99FFCCCCFFCCFFFFFF00FFFF33FFFF66FFFF99FFFFCCFFFFFF0000000D0D0D1A1A1A2828283535354343435050505D5D5D6B6B6B787878868686939393A1A1A1AEAEAEBB
310
BBBBC9C9C9D6D6D6E4E4E4F1F1F1FFFFFF0000000000000000000000000000000000000000000000000000000000002E4550F1000001BA4944415478DAED9CD10E83300845F9FFFFE57D5974D36E6A997689700F4F3EA889A71728B4D60CC3300CC3306CA4F95F2C1380AF8B912F05400E003E5D8C93775205880220086679
310
E9FD012CC30F005C000000000000005004C089095E59002EEF0253EDE8C231E05D331E3E5C1C80755DA27216787EB59BE90278296066A10B405B01B8C054F5A3005100AEAE80570A508E0104C17A2E102EF8AA06C170C95B3F0D7A44019583601740DB20D9524E66005D3768E6013BDDA2BC000291A01DF8622EB035A067D6
310
C5B302D894B41C00F3A5E5B1927CB048480D601EC38F79AE9002F63E26BE1A5000805D1ACD9A0A90750103806E1AD49E08D9050085A6C29D5A607597972A87FB5D91A6103E5751DFBC1F10EC087D674A21002C8DB13486024C7B7F405D05F497068ABB400400ABC30441D2A0FCFE00C705B483A0B60202E952E48F11377100
310
060000000000000000000000000000000000000000F202187E8E58CAE3F4468DACA30014800250000A4001C900044F493A3A7835370079051004D58360BBD7FF601B7C603779761738FA29582206F88F59401EC0270F82201D2100000000000000000000000000000000000000000000000CB207D1FD149ECEEE4E8E000000
310
0049454E44AE42608200000000000000004F04C8F47F877F007E00F490240898A50000000049454E44AE426082
  0
ENDSEC
  0
EOF
